PrimaNota.ru - самый крупный в мире бесплатный архив песенных текстов, аккордов, табулатур и нот


Dark Fortress - Throne Of Sombre Thoughts - таба, видео

Регистрация Запомнить меня
Войти через:  Facebook Google Twitter Vk Yandex Mail.ru

Dark Fortress - Throne Of Sombre Thoughts - таба, видео

Печатать
Просмотров: 200
Уроки эстрадного вокала в Санкт-Петербурге
Artist:Dark Fortress
Song:Throne Of Sombre Thoughts
Album:Tales From Eternal Dusk
Tab By:Rob Vargo (SauronSatan666@Hotmail.com)

   Riff:1 0:04-0:30 Play 5x
   Guitar:1
e||--------------------------------------------||
B||--------------------------------------------||
G||--------------------------------------------||
D||-------9-7---------9-7--------9-7-------10-9||
A||2------109---2---2-109-10-----109-12-12-1210||
E||0-0000-----0-0-0-00----8-8888-----100100----||
 ||Guitar:2
e||--------------------------------------------||
B||--------------------------------------------||
G||--------------------------------------------||
D||-------4-4---------4-4-5------5-5-7------7-7||
A||2------2-2-2---2---2-2-3-3333-3-3-5-5555-5-5||
E||0-0000-----0-0-0-0--0-----------------------||

   Riff:2 0:30-0:51
   Guitar:1
e||--------------------------------------------------------------------------------------||
B||--------------------------------------------------------------------------------------||
G||--------------------------------------------------------------------------------------||
D||----9109-99-779-91097-----9109-99-779-91097----9109-99-779-91097-----9109-99-779-91097||
A||7--7------------------7--7-----------------7--7------------------7--7-----------------||
E||--------------------------------------------------------------------------------------||
 ||Guitar:2
e||--------------------------------------------------------------------------------------||
B||--------------------------------------------------------------------------------------||
G||--------------------------------------------------------------------------------------||
D||------------5---7-----------------5---7-----------------5---7------------------5---7--||
A||2-----------3---5-----2-----------3---5---2-------------3---5----2-------------3---5--||
E||0---------------------0-------------------00000-00000-00---------00000-00000-00-------||

Play Riff:1 2x 0:51-1:02

   Riff:3 1:02-1:23
e||----------------------------------------------------------------------------------------------------------------------------------------------------------------||
B||----------------------------------------------------------------------------------------------------------------------------------------------------------------||
G||----------------------------------------------------------------------------------------------------------------------------------------------------------------||
D||5---5---57---4-------------------------------5---5---57---4---2---2---24---4---45---5---57---4-------------------------------5---5---57---4---2---2---24---4---4||
A||3333333335---2-5-2----------------5----7----53333333335---2-5-0000000002222222223333333335---2-5-2----------------5----7----53333333335---2-5-000000000222222222||
E||----------000-03-0-000000-0000000030000500003----------000-03-----------------------------000-03-0-000000-0000000030000500003----------000----------------------||

   Riff:4 2x 1:23-1:44
e||---------------------------------------------------------------------------------------------------------------------------||
B||---------------------------------------------------------------------------------------------------------------------------||
G||---------------------------------------------------------------------------------------------------------------------------||
D||------101010---------101010------------------------------------------------------------------------------------------------||
A||777999------999777999------999---------999---------------999---------777101010777---777101010777------555------999101010999||
E||------------------------------777101010---101010777101010---101010888------------888------------555888---888777------------||

   Riff:5 2x 1:44-2:04
e||------------------------------------------------------------------------------------------------------------------------------------||
B||------------------------------------------------------------------------------------------------------------------------------------||
G||------------------------------------------------------------------------------------------------------------------------------------||
D||---------999---------------999101010------------------999777999101010999101010121212101010121212141414121212141414161616171717161616||
A||777101010---101010777101010------------------999------------------------------------------------------------------------------------||
E||------------------------------------777101010---101010------------------------------------------------------------------------------||

Play Riff:4 2x 2:05-2:25
Play Riff:2 4x 2:26-2:47
Play Riff:3 1x 2:48-3:07

   Riff:6 4x 3:08-3:27                   Riff:6a 2x 3:28-3:37
e||------------------------------------||---------------------------||
B||------------------------------------||---------------------------||
G||------------------------------------||---------------------------||
D||-97------------7-----97------------7||-75--------5----75--------5||
A||7--109109-10910-109-7--109109-10910-||5--8787-878-87-5--8787-878-||
E||---------8-------------------8------||-------6--------------6----||

Play Riff:6 2x 3:38-3:47
Play Riff:6a2x 3:48-3:57
Play Riff:1 6x 3:58-4:28 under solo from 4:08-4:28

   Solo 4:08-4:28  (Play this along with the song to get the exact time, this solo is 100% just follow the song and enjoy)
e||---------------------151412151412151412151412151412151412151412151412151412151512-151412171512151412171412151412171512151412171412-
B||-----------------------------------------------------------------------------B-----------------------------------------------------
G||---------------B-------------------------------------------------------------------------------------------------------------------
D||-----------1414141214--------------------------------------------------------------------------------------------------------------
A||\\\--------------------------------------------------------------------------------------------------------------------------------
E||\\\\0000000------------------------------------------------------------------------------------------------------------------------
   Solo Continued
e||151412171512151412171412151412171512151412171412171717-B----------------------------------------------------------------------------------
B||-------------------------------------------------B-B-B108-----101213-----101213-----101213-----101213-------------------------------------
G||---------------------------------------------------------91112------91112------91112------91112-------------------------------------------
D||-----------------------------------------------------------------------------------------------------141210141210141210161412161412161412-
A||------------------------------------------------------------------------------------------------------------------------------------------
E||------------------------------------------------------------------------------------------------------------------------------------------
   Solo Continued
e||--------------------------------------------------------------||
B||-----101213-----101213-----101213-----101213171513171513171513||
G||91112------91112------91112------91112------------------------||
D||--------------------------------------------------------------||
A||--------------------------------------------------------------||
E||--------------------------------------------------------------||


Another Great Dark Fortress Song!! Enjoy This!

By Rob Vargo (SauronSatan666@Hotmail.com)
Добавлено: 27.03.2012
Другие материалы по этой песне:
  • Аккорды и текст

Страница создана 27.03.2012
http://primanota.ru/dark-fortress/throne-of-sombre-thoughts-chords.htm
Привет, Гость.
Предлагаем пройти революционный курс по гитаре.
Подарок от PrimaNota.Ru, забирай!