PrimaNota.ru - самый крупный в мире бесплатный архив песенных текстов, аккордов, табулатур и нот


Dark Fortress - Tales From Eternal Dusk - текст песни, таба, видео

Регистрация Запомнить меня
Войти через:  Facebook Google Twitter Vk Yandex Mail.ru

Dark Fortress - Tales From Eternal Dusk - текст песни, таба, видео

Печатать
Просмотров: 112
These are just the notes that are played, listen to the song to see how many times
everything is played, picking patterns etc.


riff 1
e||--------------------------------|
B||--------------------------------|
G||--------------------------------|
D||--------5-3---7--5--10-8--7-----|
A||--------3-1---5--3--8--6--5-----|
E||--------------------------------|

fill 1 (not sure if it's called fill)

e||-------------------------------------------------------------------|
B||-------------------------------------------------------------------|
G||-----7-5----------------------------7-5---------------------10-8---|
D||---------8-7--5-7-8-8-7-5-5-3-3---------8-7--5-7-8-8-7-5-5---------|
A||-------------------------------------------------------------------|
E||-------------------------------------------------------------------|

riff 1
e||--------------------------------|
B||--------------------------------|
G||--------------------------------|
D||--------5-3---7--5--10-8--7-----|
A||--------3-1---5--3--8--6--5-----|
E||--------------------------------|


riff 2 tremolo picking

e||-------------------------|
B||-------------------------|
G||-------------------------|
D||-------------------------|
A||-----7--5--3---5---7-----|
E||-----5--3--1---3---5-----|

fill 2 tremolo picking

e||------------------------------------|
B||------------------------------------|
G||------------------------------------|
D||-------12-10-9-------12-10-9--------|
A||----12---------10-8----------10-12--|
E||------------------------------------|


riff 3 listen to the song.

e||----------------------------|
B||----------------------------|
G||----------------------------|
D||----------------------------|
A||----11-9--7--6--4--7--6-----|
E||----9--7--5--4--2--5--4-----|

fill 3 /- slide  t-tap   p- pull off

                                thrill|
e||-----------------------------------------------------------------------------------------|
B||-----------------------------------------------------------------------------------------|
G||----4/6-6-8-9/13-11/13-14-13-11t13p11-9-8-9-8-9/11-9-8-9-8-4-6-8-6-99-88-6----6-88-99-11-|
D||-----------------------------------------------------------------------------------------|
A||-----------------------------------------------------------------------------------------|
E||-----------------------------------------------------------------------------------------|


-----------------------------------------------------------|
-----------------------------------------------------------|
-13-14-13-11t13p11-8--11(13)-6-6-88-9-88-4-6-8-6--99-88-6--|
-----------------------------------------------------------|
-----------------------------------------------------------|
-----------------------------------------------------------|

riff 4 tremolo picking

e||---------------------------------------------------------------------|
B||---------------------------------------------------------------------|
G||---------------------------------------------------------------------|
D||----------777-5555------777555-------101010888-------555777888777----|
A||---------------------------------------------------------------------|
E||-----5555----------666-----------888-------------666-----------------|


e||--------------------------------------------------------------------------|
B||--------------------------------------------------------------------------|
G||--------------------------------------------------------------------------|
D||---------555777888777-----555777888777-----101010888777-----55577788877---|
A||--------------------------------------------------------------------------|
E||----555---------------666--------------888--------------666---------------|

listen to the song for this.

e||----------------------------------------------------------------------------------------|
B||----------------------------------------------------------------------------------------|
G||----------------------------------------------------------------------------------------|
D||----------7-------7-----5-5--------7-----5-7-8-------10-----10-8-7--------555777888777--|
A||----------------------------------------------------------------------------------------|
E||----5-5-5---5-5-5---5-5-----6--6-6---6-6-------8-8-8----8-8---------6-6-6---------------|

riff 5

e||-------------------|
B||-------------------|
G||-------------------|
D||-------------------|
A||----7--10--5--7----|
E||----5--8---3--5----|


Pause


riff 6

e||-------------------|
B||-------------------|
G||-------------------|
D||-------10--9--7----|
A||----7--8---7--5----|
E||----5--------------|

riff 7 tremolo picking

e||---------------------------|
B||---------------------------|
G||---------------------------|
D||--9--5-4-2-10-9-7--5-7-9---|
A||--7--3-2-0-8--7-5--3-5-7---|
E||---------------------------|

riff 8 again ,listen to the song.

e||---------------------------|
B||---------------------------|
G||---------------------------|
D||--9---8---9---10-----------|
A||--7---6---7---8------------|
E||---------------------------|

riff 9 listen to the song for timing.

e||---------------------------|
B||---------------------------|
G||---------------------------|
D||---------------------------|
A||---2--9--10--9-7-9-4-------|
E||---0--7--8---7-5-7-2-------|

another pause, then play riff 9 again.
Добавлено: 30.10.2013
Другие материалы по этой песне:
  • Аккорды и текст

Страница создана 30.10.2013
http://primanota.ru/dark-fortress/tales-from-eternal-dusk-chords.htm
Привет, Гость.
Предлагаем пройти революционный курс по гитаре.
Подарок от PrimaNota.Ru, забирай!