PrimaNota.ru - самый крупный в мире бесплатный архив песенных текстов, аккордов, табулатур и нот


Dark Fortress - Like A Somnabulist In Daylights Fire - таба, видео

Регистрация Запомнить меня
Войти через:  Facebook Google Twitter Vk Yandex Mail.ru

Dark Fortress - Like A Somnabulist In Daylights Fire - таба, видео

Печатать
Просмотров: 66
------------------------------------------------------------------------------

DARK FORTRESS-Like a Somnabulist in a Daylights Fire  from Stabwound 2004
-------------------------------------------------------------------------------
Tabbed by:NihilView

E-mail:

Tuning:D STANDARD   DGCFAd




|---------------------------------------------------------------------------|
|---------------------------------------------------------------------------| INTRO-MAIN THEME
|---------------------------------------------------------------------------|
|---4-4-4-4-4--4--5-5--4---2--4---5-5-5-5-4-4-4--7---5----------------------|
|---2-2-2-2-2--2--2-2--2---2--2---7-7-7-7-7-7-7--7---7----------------------|
|---------------------------------------------------------------------------|


|---------------------------------------------------------------------------|
|---------------------------------------------------------------------------| FILL 1
|---------------------------------------------------------------------------|
|---44444-5555---7777---55---44--55-----------------------------------------|
|---------------------------------------------------------------------------|
|---------------------------------------------------------------------------|


|---------------------------------------------------------------------------|
|---------------------------------------------------------------------------| FILL 2
|---------------------------------------------------------10--9--7----------|
|---7777-9999-7--9-10----------------7777--9999---7-9-10--------------------|
|---------------------8-8--77--5--------------------------------------------|
|---------------------------------------------------------------------------|


   REPEAT MAIN THEME!




  play tremolo pick.............................................................
|--------------------------------------------------------------------------------|
|--------------------------------------------------------------------------------| VERSE 
|-----------------1212---1111----99-------99-------------------------------------|
|----------99------------------------1010---------------------1212--1010-99--7H9-| GUIT.1
|----77-------------------------------------------------99-----------------------|
|---------------------------------------------------88---------------------------|

|---------------------------------------------------------------------------|
|---------------------------------------------------------------------------| VERSE 
|----7--------------9-------------------------------------------------------|
|----7--------------9-----------------------9------------10-----------------|  GUIT.2
|----5--------------7-----------------------9------------10-----------------|
|-------------------------------------------7------------8------------------|



|---------------------------------------------------------------------------|
|---------------------------------------------------------------------------|
|---------------------------------------------------------------------------| CHORUS
|----8--8---8----7---7---7-----5--5--5--7--7--7-----------------------------|
|----10-10--10---10--10--10----6--6--6--6--6--6-----------------------------|
|---------------------------------------------------------------------------|


    REPEAT THEME!


  CLEAN BRIDGE!

        2x  
|--------------------------------------------------------------------------------------------|
|--------------0----------------------------------0-----------------------0------------------| CLEAN GUITAR 
|--------4--------4-------4----------------2---------2--------2--------0-----0----------0----|
|-----5-----5---------5----------------4------4----------4----------2----------------4-----4-| Let ring
|---------------------------------------------------------------------------------5----------|
|-0-------------------------------0----------------------------------------------------------|



|---------------------------------------------------------------------------------------|  
|---------------------------------------------------------------------------------------|  Let Ring
|------------0-------------0-------------0-------------0------------0------------0------|
|--------4------4-------4-----4-------4-----4-------4-----4------4-----4------4------4--|
|----------------------------------3-------------3------------2-------------3-----------|
|----0---------------0------------------------------------------------------------------|



                          2x                      2x
!---0-------0--------------------------------------------------------------------------!
!---0-------0--------------------------------------------------------------------------! Let ring
!---0-------0---------------0-----------------------------------0----------------------! variations up-down
!---2-------4------------4------4------4--------------4--------------4--------4--------!
!---2-------3---------3------------3-------------2---------2--------------2------------!
!---0---------------0------------------------0-----------------------------------------!



!----------------------------------------------------------------------------------------!
!----------------------------------------------------------------------------------------! DISTORTION
!----------------------------------------------------------------------------------------!
!--------4----------2-------------4----------2--------------4-----------2----------------!
!--------3----------3-------------3----------3-----------3-----------3-------------------!
!---0-----------0-----------0-----------0------------0-----------0-----------------------!

  P.M        P.M.



 let ring----------------------I
!------------------------------------I------------------------------------------------!
!----------------------------0-------I------------------------------------------------!
!-----------0------------------------I--------------2X---------------2X---------------!
!--------4---------------4-----------I-----5--4-4-4----------5-4-4-4------------------!
!-----2---------------3--------------I-----7--7-7-7----------3-3-3-3------------------!
!--0---------------0-----------------I------------------------------------------------!



!------------------------------------------------------------------------!
!------------------------------------------------------------------------!
!------------------------------------------------------------------------!
!--9-9-9-9--10--9-9-9----10-10---9--12---10------------------------------!
!--7-7-7-7--7---7-7-7----12-12--12--12---12------------------------------!
!------------------------------------------------------------------------!



AFTER THIS PART ON END PLAY VERSE HARMONY UNTILL FADE!




************************************

| /   slide up
| \   slide down
| h   hammer-on
| p   pull-off
| ~   vibrato
| +   harmonic
| x   Mute note
| b   Bend
| pb  Pre-bend
| br  Bend release
| pbr Pre-bend release
| brb Bend release bend

************************************
Добавлено: 06.11.2015
Другие материалы по этой песне:
  • Аккорды и текст

Страница создана 06.11.2015
http://primanota.ru/dark-fortress/like-a-somnabulist-in-daylights-fire-chords.htm
Привет, Гость.
Предлагаем пройти революционный курс по гитаре.
Подарок от PrimaNota.Ru, забирай!