PrimaNota.ru - самый крупный в мире бесплатный архив песенных текстов, аккордов, табулатур и нот


Dark Fortress - Dreaming - таба, видео

Регистрация Запомнить меня
Войти через:  Facebook Google Twitter Vk Yandex Mail.ru

Dark Fortress - Dreaming - таба, видео

Печатать
Просмотров: 202
Artist:Dark Fortress
Song:Dreaming
Album:Tales From Eternal Dusk
Tab By:Rob Vargo (SauronSatan666@Hotmail.com)

I updated riff 5. this is the way its done
	

  
   Riff:1  Play 2x 0:00-0:19
   Guitar:1
e||----------------------------------------------------------------------------------------|
B||----------------------------------------------------------------------------------------|
G||---------------777-------------------------------------------------------------------777|
D||999---999101010---101010999-------------------------------------------999---999101010---|
A||---777---------------------101010---101010999101010------777999101010----777------------|
E||---------------------------------888---------------101010-------------------------------|
 ||Guitar:2										    
e||----------------------------------------------------------------------------------------|
B||----------------------------------------------------------------------------------------|
G||----------------------------------------------------------------------------------------|
D||9-9-9-9-9-9-9-9--9-9-9-9-9-9-9-9-5-5-5-5---5-5-5-5-7-7-7-7---7-7-7-7--9-9-9-9-9-9-9-9--9|
A||7-7-7-7-7-7-7-7--7-7-7-7-7-7-7-7-3-3-3-3---3-3-3-3-5-5-5-5---5-5-5-5--7-7-7-7-7-7-7-7--7|
E||----------------------------------------------------------------------------------------|

----------------------------------------------------||
----------------------------------------------------||
----------------------------------------------------||
101010999-------------------------------------------||
---------101010---101010999101010------7799101010999||
---------------888---------------101010-------------||
                                                      
----------------------------------------------------||
----------------------------------------------------||
----------------------------------------------------||
-9-9-9-9-9-9-9--5-5-5-5---5-5-5-5-7-7-7-7---7-7-7-7-||
-7-7-7-7-7-7-7--3-3-3-3---3-3-3-3-5-5-5-5---5-5-5-5-||
----------------------------------------------------||

   Riff:2 Play 2x 0:19-0:31                            
   Both Guitars                                        
e||---------------------------------------------------|
B||---------------------------------------------------|
G||---------------------AH-AH-------------------------|
D||---------------------10--9-5----5--4--5--7--5--4--7|
A||2----7--9--10--9--7--------3-333-33-33-33-33-33-335|
E||0-000-00-00--00-00-00--00--------------------------|

 Riff:2A Play 2x 0:31-0:44                                                         
 Both Guitars                                                                   
|-----------------------------------------------------------------------------||
|-----------------------------------------------------------------------------||
|-----------------------------------------------------------------------------||
|------99------------------99------------5-----504-5-----705-5-----754-54--4--||
|2-----77-2-----7910-2-----77-2-----7910-3-333-----3-333-----3-333-------7--75||
|0-000----0-000------0-000----0-000-------------------------------------------||

   Play Riff:2 2x 0:44-0:57
   Play Riff:1 1x 0:57-1:07
  
   Riff:3 Play 2x 1:07-1:17
   Both Guitars
e||-------------------------------------------------------------||
B||-------------------------------------------------------------||
G||-------999---------999---------------------------------------||
D||----999---999---999---999---------101010999777---------------||
A||777----------777------------101010------------101010999101010||
E||-------------------------888---------------------------------||

   Play Riff:1 1x 1:17-1:26
   Play Riff:3 2x 1:26-1:36

   Riff:4 Play 2x 1:36-2:03
   Guitar:1
e||-------------------------------------------------------------------------------------------------||
B||-------------------------------------------------------------------------------------------------||
G||---------666---------------------666---------------------666---------------------666-------------||
D||888---------999888------888---------999888------888---------999888------888---------999888-------||
A||---999888---------999888---999888---------999888---999888---------999888---999888---------999888-||
E||-------------------------------------------------------------------------------------------------||
 ||Guitar:2
e||-------------------------------------------------------------------------------------------------||
B||-------------------------------------------------------------------------------------------------||
G||-------------------------------------------------------------------------------------------------||
D||3333333333333333333333333444444444444444444444444333333333333333333333333------------333333444444||
A||1111111111111111111111111222222222222222222222222111111111111111111111111666666666666111111222222||
E||-------------------------------------------------------------------------444444444444------------||

   Riff:5 play 2x 2:03-2:27 
   Both Guitars  listin to the song for timing on this 1. its a little weird
e||---------------------------------------------------------------------------------------------------|
B||---------------------------------------------------------------------------------------------------|
G||---------------------------------------------------------------------------------------------------|
D||---------------------------------------------------------------------------------------------------|
A||8-----8----------8----88-----8----------8----89-----9----------9----99----------------9----98-----8|
E||6-666-6-666-6-6666-66-66-666-6-666-6-6666-66-67-777-7-777-7-7777-77-77-777-7-777-7-7777-77-76-666-6|

----------------------------------------------------------------||
----------------------------------------------------------------||
----------------------------------------------------------------||
----------------------------------------------------------------||
---------8----88-----8----------8----86-----6----------6-----8-9||
666-6-6666-66-66-666-6-666-6-6666-66-64-444-4-444-4-4444-444-6-7||


   Play Riff:2 2x  2:27-2:40
   Play Riff:2A 2x 2:40-2:53
   Play Riff:2 2x  2:53-3:05

   Ending Riff:A 3:05-3:19
   Both Guitars
e||----------------------------------------------------------------------------------------------|
B||----------------------------------------------------------------------------------------------|
G||----------------------------------------------------------------------------------------------|
D||----------------------------------------------------------------------------------------------|
A||--------------2-22---------------2-26----6---7---6-6----6---7---62----2---3---2-2----2---3---2|
E||0000000000000-0-00-0000000000000-0-04-444-444-444--4-444-444-444-0-000-000-000--0-000-000-000-|


------------------------------||
------------------------------||
------------------------------||
------------------------------||
-6----6---7---6-6----6---7---6||
-4-444-444-444--4-444-444-444-||

   Ending Riff:B Play 2x 3:19-3:33
   Both Guitars                                                        
e||-------------------------------------------------------------------|
B||-------------------------------------------------------------------|
G||----------------------------9--------------------------------------|
D||---------------------------9-9-------------------------------------|
A||2-------2-------2-------710---10-6----6---7---6--66----6---7---6--6|
E||0-0-000-0-0-000-0-0-000----------4-444-444-444-4-44-444-444-444-4-4|

 Fade out with this                                           
|-----------------------------------------------------------||
|-----------------------------------------------------------||
|-----------------------------------------------------------||
|-----------------------------------------------------------||
|2----2---3---2-2----2---3---2-6----6---7---6-6----6---7---6||
|0-000-000-000--0-000-000-000--4-444-444-444--4-444-444-444-||

Dark Fortress is 1 of the best Black metal bands Ever. i dont know why there is no tab on
the net for them. Enjoy this! give me a few weeks and i will do a few more

Questions/Comments:Email me at SauronSatan666@hotmail.com
Добавлено: 19.05.2012
Другие материалы по этой песне:
  • Аккорды и текст

Страница создана 19.05.2012
http://primanota.ru/dark-fortress/dreaming-chords.htm
Привет, Гость.
Предлагаем пройти революционный курс по гитаре.
Подарок от PrimaNota.Ru, забирай!