PrimaNota.ru - самый крупный в мире бесплатный архив песенных текстов, аккордов, табулатур и нот


Dark Age - Outside The Inside - текст песни, таба, видео

Регистрация Запомнить меня
Войти через:  Facebook Google Twitter Vk Yandex Mail.ru

Dark Age - Outside The Inside - текст песни, таба, видео

Печатать
Просмотров: 203
Авторы музыки: Dark Age
Авторы текста: Eike Freese
                     Band: Dark Age
                     Album: Minus Exitus 
                     Song: Outside Inside


http://www.dark-age.de/

Email: trailer0@hotmail.com

Drop Db tuning


h - Hammer on
p - Pull off
/ - slide up
\ - slide down
. - Palm mute
~ - Vibrato
ph- Pinch harmonic


Song without solo so it wasnt that difficult at all. (100% ear)


Intro

|---------------------------------------------------------------------------|
|--------6-------5-------8---6---5------------------------------------------|
|------7---7---7---7---7---7---7---7----------------------------------------|
|----7-------7-------7------------------------------------------------------|
|---------------------------------------------------------------------------|
|---------------------------------------------------------------------------|


Main Riff I

|---------------------------------------------------------------------------|
|---------------------------------------------------------------------------|
|---------------------------------------------------------------------------|
|----------------3---------------------3------------------------------------|
|------5-3-5---5---5-3-5-----3-2-3---5---5-3-5------------------------------|
|--0-0-------0-----------3-3-------5----------------------------------------|
                                                     
|---------------------------------------------------------------------------|
|---------------------------------------------------------------------------|
|---------------------------------------------------------------------------|
|--8--8-8-8--7-8-10--10-10---3--5-3-5---------------------------------------|
|--8--8-8-8--7-8-10--10-10---3--5-3-5---------------------------------------|
|--8--8-8-8--7-8-10--10-10---3--5-3-5---------------------------------------|
      . . .           .  .


Verse I

|---------------------------------------------------------------------------|
|---------------------------------------------------------------------------|
|---------------------------------------------------------------------------|
|------------------5--5-5--------------------5--5-5-------------------------|
|------------------3--3-3--------------------5--5-5-------------------------|
|--000 0-0---0-0-0----------000 0-0---0-0-0--5--5-5-------------------------|
   ... . .   . . .          ... . .   . . .

|---------------------------------------------------------------------------|
|---------------------------------------------------------------------------|
|---------------------------------------------------------------------------|
|---------------------5----------------------5------------------------------|
|---------------------3----------------------5------------------------------|
|--000-0-0-0-0-000-0------000-0-0-0-0-000-0--5------------------------------|
   ... . . . . ... .      ... . . . . ... . 


Pre-Chorus I

|---------------------------------------------------------------------------|
|---------------------------------------------------------------------------|
|---------------------------------------------------------------------------|
|--5\3----------------3------------------5--5-5-5-5-5-5-5-5-5-5-5-5-5-------|
|--5\3----3-----2---3-------3-----3------5--5-5-5-5-5-5-5-5-5-5-5-5-5-------|
|--5\3--0---0-0---0-----3-3---3-3---3----5--5-5-5-5-5-5-5-5-5-5-5-5-5-------|
                                            . . . . . .     .     .


Chorus I

|---------------------------------------------------------------------------|
|--3-3-3-3-3-3-3-3----------------------------------------------------------|
|--2-2-2-2-2-2-2-2----------------------------------------------------------|
|--0-0-0-0-0-0-0-0--3-3-3-3-3-3-3-3--5-5-5-5-5-5-5-5--5-5-5-5-5-5-5-5-------|
|--0-0-0-0-0-0-0-0--1-1-1-1-1-1-1-1--3-3-3-3-3-3-3-3--5-5-5-5-5-5-5-5-------|
|--0-0-0-0-0-0-0-0------------------------------------5-5-5-5-5-5-5-5-------|
                                                                             X2
|---------------------------------------------------------------------------|
|--3-3-3-3-3-3-3-3----------------------------------------------------------|
|--2-2-2-2-2-2-2-2----------------------------------------------------------|
|--0-0-0-0-0-0-0-0--3-3-3-3-3-3-3-3--3-3-3-3-3-3-3-3--5-5-5-5-5-5-5-5-------|
|--0-0-0-0-0-0-0-0--1-1-1-1-1-1-1-1--3-3-3-3-3-3-3-3--5-5-5-5-5-5-5-5-------|
|--0-0-0-0-0-0-0-0-------------------3-3-3-3-3-3-3-3--5-5-5-5-5-5-5-5-------|

(Slight variation at the end of Chorus I only)

|---------------------------------------------------------------------------|
|--3-3-3-3-3-3-3-3----------------------------------------------------------|
|--2-2-2-2-2-2-2-2----------------------------------------------------------|
|--0-0-0-0-0-0-0-0--3-3-3-3-3-3-3-3--3---3-3-3-3-3-3--3/5---3/5-------------|
|--0-0-0-0-0-0-0-0--1-1-1-1-1-1-1-1--3---3-3-3-3-3-3--1/3---3/5-------------|
|--0-0-0-0-0-0-0-0-------------------3---3-3-3-3-3-3--------3/5-------------|
                                         . . . . . .



Solo-Bridge I

|---------------------------------------------------------------------------|
|----10-----8--10------------------------------------------------------8----|
|------------------10---10-----9---10---7---9-10---7---9---10-----9-10------|X2
|--7----7-7---7--7----7----7-7---7----7---7------7---7---7----7-7-----------|
|---------------------------------------------------------------------------|
|---------------------------------------------------------------------------|

Verse II

Pre-Chorus II

Main Riff II 

Solo Bridge II (Guitar II)

|---------------------------------------------------------------------------|
|---------------------------------------------------------------------------|
|---------------------------------------------------------------------------|
|--0--3--5--5---------------------------------------------------------------|
|--0--1--3--5--X4-----------------------------------------------------------|
|--0--------5---------------------------------------------------------------|


Verse III (Ph only on repetition)

|---------------------------------------------------------------------------|
|---------------------------------------------------------------------------|
|----------------------------------------------------X2---------------------|
|---------------------------------------------------------------------------|
|------5-3-5-------------------5-3-5----------------------------------------|
|--0-0--------7-6-5-0-3-5--0-0--------7-6-5-0-3(ph)-------------------------|



Verse Riff (as interlude)

Pre-Chorus III

Chorus III


Outro

|---------------------------------------------------------------------------|
|---------------------------------------------------------------------------|
|---------------------------------------------------------------------------|
|------------------------0--------------------------------------------------|
|------5-3-5-------------0--------------------------------------------------|
|--0-0-------7-6-5-0-3---0--------------------------------------------------|
Добавлено: 08.04.2012
Другие материалы по этой песне:

Страница создана 08.04.2012
http://primanota.ru/dark-age/outside-the-inside-chords.htm
Привет, Гость.
Предлагаем пройти революционный курс по гитаре.
Подарок от PrimaNota.Ru, забирай!