PrimaNota.ru - самый крупный в мире бесплатный архив песенных текстов, аккордов, табулатур и нот


Dark Age - No Way Home - текст песни, таба, видео

Регистрация Запомнить меня
Войти через:  Facebook Google Twitter Vk Yandex Mail.ru

Dark Age - No Way Home - текст песни, таба, видео

Печатать
Просмотров: 180
Авторы музыки: Dark Age
Авторы текста: Eike Freese
Dark Age - No Way Home
Minus Exitus 2008

Drop Db tuning

h - Hammer on
p - Pull off
/ - slide up
\ - slide down
. - Palm mute
~ - Vibrato
ph- Pinch harmonic

Please note that I'm not pro tabber and I just love Dark Age so I wanted to share my 
idea of this song with everyone else interested in this song. Hope you enjoy!

Intro rhytm

-------------------------------------------------------------------------|
-------------------------------------------------------------------------|
-----------5-------------------------------------------------------------|
-0----3----5----5---3----------------------------------------------------|
-0----3----3----5---3----------------------------------------------------|
-0----3---------5---3----------------------------------------------------| X2

Intro lead

-------------------------------------------------------------------------|
-------------------------------------------------------------------------|
-14-14-14-14-12-12-12-12-9-9-9-9-9h10-7-7-7-5----------------------------|
-------------------------------------------------------------------------|
-------------------------------------------------------------------------|
-------------------------------------------------------------------------| X2

Verse X2
---------------------------------------------------------------------------|
---------------------------------------------------------------------------|
---------------------------------------------------------------------------|
7-7-7-7-7-7-7-7-7-7-7-7-7-7-7-10-10-10-10-10-10-10-10-10-10-10-10-10-10-10-|
---------------------------------------------------------------------------|
---------------------------------------------------------------------------|
. . . . . . . . . . . . . . . . . . . . . . . . . . . . . . . . . . . . .


-------------------------------------------------------------------------|
-------------------------------------------------------------------------|
-------------------------------------------------------------------------|
-7-7-7-7-7-7-7-7-7-7-7-7-7-7-7-5-5-5-5-----------------------------------|
---------------------------------------8-8-8-8-8-8-8-8-0-0-0-0-0-0-0-0---|
-------------------------------------------------------------------------|
 . . . . . . . . . . . . . . . . . . . . . . . . . . . . . . . . . . .

Bridge
-----0---------0--------------------------------------------------------|
-----3---------3--------------------------------------------------------|
-----2---------2--------------------------------------------------------|
-0---0----5----0--------------------------------------------------------|
-0--------5-------------------------------------------------------------|
-0--------5-------------------------------------------------------------|


------------------------------------------------------------------------|
------------------------------------------------------------------------|
------------------------------------------------------------------------|
-------------------------------------------------------3--------5-------|
-------------------------------------------------------3--------5-------|
-5-10-7--5-7-7--5-7-10-5-7--5-10-7--5-7-7--5-7-10-5-7--3--------5-------|


Chorus rhytm
-------------------------------------------------------------------------|
-------------------------------------------------------------------------|
-----------------5-------------------------------------------------------|
-0-------3-------5-------5-----3-----------------------------------------|
-0-------3-------3-------5-----3-----------------------------------------|
-0-------3---------------5-----3-----------------------------------------| X4

Chorus lead
------------------------------------------------------------------------|
------------------------------------------------------------------------|
-14-14-14-14-12-12-12-12-9-9-9-9-9h10-7-7-7-5---------------------------|
------------------------------------------------------------------------|
------------------------------------------------------------------------|
------------------------------------------------------------------------| X4


Verse X2
Bridge
Synth/piano breakdown


------------------------------------------------------------------------|
------------------------------------------------------------------------|
------------------------------------------------------------------------|
------------------------------------------------------------------------|
------------------------------------------------------------------------|
-/7~--/9~--/10~--/12~---------------------------------------------------| X6

Other guitar
-------------------------------------------------------------------------|
-------------------------------------------------------------------------|
-------------------------------------------------------------------------|
-/7~--/9~--/10~--/12~----------------------------------------------------|
-------------------------------------------------------------------------|
-------------------------------------------------------------------------| X4

-5-5-5-5-5-5-5-5-7-7-7-7-7-7-7-7-8-8-8-8-8-8-8-8-12-12-12-12-12-12-12-12-|
-------------------------------------------------------------------------|
-------------------------------------------------------------------------|
-------------------------------------------------------------------------|
-------------------------------------------------------------------------|
-------------------------------------------------------------------------|

-8-8-8-8-8-8-8-8-10-10-10-10-10-10-10-10-7-7-7-7-7-7-7-7-----------------|
-------------------------------------------------------------------------|
-------------------------------------------------------------------------|
-------------------------------------------------------------------------|
-------------------------------------------------------------------------|
-------------------------------------------------------------------------|

-19-19-19-19-19-19-19-19-20-20-20-20-20-20-20-20-15-15-15-15-15-15-15-15-|
-------------------------------------------------------------------------|
-------------------------------------------------------------------------|
-------------------------------------------------------------------------|
-------------------------------------------------------------------------|
-------------------------------------------------------------------------|

-19-19-19-19-19-19-19-19-------------------------------------------------|
-------------------------------------------------------------------------|
-------------------------------------------------------------------------|
-------------------------------------------------------------------------|
-------------------------------------------------------------------------|
-------------------------------------------------------------------------|

Chorus

Outro
-----------------------------------------------------------------------------|
---------------------------------------------------------8-8-----------------|
-14-14-14-14-10-10-10-10-12-12-12-12-9-9-9-9-7-7-7-7-5-5-----7-7-7-7-7-7-7-7-|
-----------------------------------------------------------------------------|
-----------------------------------------------------------------------------|
-----------------------------------------------------------------------------|
Добавлено: 06.12.2013
Другие материалы по этой песне:
  • Аккорды и текст

Страница создана 18.11.2013
http://primanota.ru/dark-age/no-way-home-chords.htm
Привет, Гость.
Предлагаем пройти революционный курс по гитаре.
Подарок от PrimaNota.Ru, забирай!