PrimaNota.ru - самый крупный в мире бесплатный архив песенных текстов, аккордов, табулатур и нот


Dark Age - Know Me Strong - таба, видео

Регистрация Запомнить меня
Войти через:  Facebook Google Twitter Vk Yandex Mail.ru

Dark Age - Know Me Strong - таба, видео

Печатать
Просмотров: 147
                     Band: Dark Age
                     Album: The Silent Republic
                     Song: Know Me Strong



Email: trailer0@hotmail.com

Tuning: Half-step Down


h - Hammer on
p - Pull off
/ - Slide up
\ - Slide down
. - Palm mute
~ - Vibrato
ph- Pinch harmonic
t - Tapping
x - Dead note
b - Bend



Intro A (Main Riff) 

|---------------------------------------------------------------------------|
|---------------------------------------------------------------------------|
|-------5---4h5-5-------7-----5---------------------------------------------|
|---------------------5---5-5---5-5-----5-----5---5-----5---7-7-5-5-7---x2--|
|---0-0---0-------0-0---------------3-3---3-3---3-----5---5-----------------|
|---------------------------------------------------------------------------|
    . .   .       . .  .  . .   . . . .   . .   .     .   .  

Intro B

|---------------------------------------------------------------------------|
|---------------------------------------------------------------------------|
|---------------------------------------------------------------------------|
|---------------5-----5-5---5-7---------------------------------------------|
|-------7-7-5-7-----------3---------7-5-7-----5---5-7---7-------------------|
|---0-0-----------0-0-----------0-0-------3-3---3-----5---------------------|
    . .           . .           . .            

|---------------------------------------------------------------------------|
|---------------------------------------------------------------------------|
|---------------------------------------------------------------------------|
|---------------5-----5-5---------------5---9-5---------5-------------------|
|-------7-7-5-7-----------9-7-9-----7-7---7-----9-7-7-----7-----------------|
|---0-0-----------0-0-----------0-0-------------------7---------------------|
    . .           . .           . .               


Verse A I

Guitar I (Main Riff)

Guitar II

|-----------|----------------------------------------------------------------|
|-----------|----------------------------------------------------------------|
|------7----|----------------------------------------------------------------|
|---5--7----|------7---5------7---5------------------------------------------|
|---5--5----|------7---5------7---5------------------------------------------|
|---3-------|------5---3------5---3------------------------------------------|


Guitar I

Main Riff Harmony

|---------------------------------------------------------------------------|
|---------------------------------------------------------------------------|
|-------9---7h9-9-------10-----9----------7-----7---7----7---9-9-7-7-9------|
|---7-7---7-------7-7-7----7-7---7-7--5-5---5-5---5----7---7------------X2--|
|---------------------------------------------------------------------------|
|---------------------------------------------------------------------------|
    . .   .       . . .    . .   . .  . .   . .   .    .   . 


Verse B II

|---------------------------------------------------------------------------|
|-----------8---------10-8-7-8-7--------------8---------10-8-7-8-7----------|
|-----7-9-----9---7-9------------9-7----7-9-----9---7-9------------7-9------|
|---7-----7-----7---------------------7-----7-----7---------------------x2--|
|---------------------------------------------------------------------------|
|---------------------------------------------------------------------------|
    . . . . . . . . .  . . . . . . .  . . . . . . . . .  . . . . . . . 

Guitar II (just before the pre-chorus)
                                     |--------------------------------------|
                                     |--------------------------------------|    
                                     |--------------------------------------|   
                                     |-3-3-3-3-3-3-3-3--5-5-5-5-5-5-5-5-----|
                                     |-3-3-3-3-3-3-3-3--5-5-5-5-5-5-5-5-----|
                                     |-1-1-1-1-1-1-1-1--3-3-3-3-3-3-3-3-----|
                                       . . . . . . . .  . . . .



Pre-chorus I

Guitar I

|---------------------------------------------------------------------------|
|-----------8---------10-8-7-8-7--------------8---------10-8-7-8-7----------|
|-----7-9-----9---7-9------------9-7----7-9-----9---7-9------------7-9------|
|---7-----7-----7---------------------7-----7-----7-------------------------|
|---------------------------------------------------------------------------|
|---------------------------------------------------------------------------|

Guitar II

|---------------------------------------------------------------------------|
|---------------------------------------------------------------------------|
|---------------------------------------------------------------------------|
|---7--7-----3--5-----------------------------------------------------------|
|---7--7-----3--5--x2-------------------------------------------------------|
|---5--5-----1--3-----------------------------------------------------------|


Chorus I

Guitar I

|---------------------------------------------------------------------------|
|---------------------------------------------------------------------------|
|-----------------------------------------------------7---------------------|
|---7---7-7--10-9----7---7-7--10-9----7---7-7-10-9-------10--9---------X2---|
|-----------------10---------------10--------------10-----------10----------|
|---------------------------------------------------------------------------|


Guitar II

|---------------------------------------------------------------------------|
|---------------------------------------------------------------------------|
|-----------------------------------------------------7-7-7-7-7-7-7-7-------|
|---7-7-7-7-7-7-7-7-7-7-7-7-7-7-7-7--5-5-5-5-5-5-5-5--7-7-7-7-7-7-7-7---X2--|
|---7-7-7-7-7-7-7-7-7-7-7-7-7-7-7-7--5-5-5-5-5-5-5-5--5-5-5-5-5-5-5-5-------|
|---5-5-5-5-5-5-5-5-5-5-5-5-5-5-5-5--3-3-3-3-3-3-3-3------------------------|



Verse A II

Verse B II 

Pre-chorus II

Chorus II

Bridge (Intro A & B) then Main Riff 



Solo
                                            Bend to 12 ph then release to 10
|---------------------------------------------------------------------------|
|-----------------------------------------------8-10-10b12ph(10)------------|
|--------------------7-7----------------------7-----------------------------|
|---7--9-10-9-7-9--------9-10-9-7-9-7----7----------------------------------|
|-------------------------------------10------------------------------------|
|---------------------------------------------------------------------------|


|---------------------------------------------------------------------------|
|--10--10--10-10-10---------------------------------------------------------|
|-------------------9-9-7-7-9-9---------9-7------/17-17--16-14-16--17-14~---|
|-------------------------------7-9-9-9-------------------------------------|
|---------------------------------------------------------------------------|
|---------------------------------------------------------------------------|


|------------------15-17-19-20-19-17-19~--20-19-17-15-----------------------|
|---------15-17-19------------------------------------19-17-15-13-12-13-15--|
|---16-17-------------------------------------------------------------------|
|---------------------------------------------------------------------------|
|---------------------------------------------------------------------------|
|---------------------------------------------------------------------------|

|---------------------------------------------------------------------------|
|--13-----------------------------------------------------------------------|
|-----14-12-14~-------------------------------------------------------------|
|---------------------------------------------------------------------------|
|---------------------------------------------------------------------------|
|---------------------------------------------------------------------------|


Verse B III

Pre-chorus III

Chorus III



Almost! :)
Sorry for the mistakes.
Добавлено: 02.04.2012
Другие материалы по этой песне:
  • Аккорды и текст

Страница создана 02.04.2012
http://primanota.ru/dark-age/know-me-strong-chords.htm
Привет, Гость.
Предлагаем пройти революционный курс по гитаре.
Подарок от PrimaNota.Ru, забирай!