PrimaNota.ru - самый крупный в мире бесплатный архив песенных текстов, аккордов, табулатур и нот


Dark Age - Cold - текст песни, таба, видео

Регистрация Запомнить меня
Войти через:  Facebook Google Twitter Vk Yandex Mail.ru

Dark Age - Cold - текст песни, таба, видео

Печатать
Просмотров: 260
Авторы музыки: Dark Age
Авторы текста: Eike Freese
Dark Age - Cold

Please hear rhythm by ear (got no time to tab it rightly)




Intro:
C#|----------------------------------------|
G#|----------------------------------------|
E |----------5--5-55---7-777---2--2-22-----|
B |-2--222---5--5-55---7-777---2--2-22-----|
F#|-2--222---3--3-33---5-555---0--0-00-----|
C#|-0--000---------------------------------|



----------------------------------------|
----------------------------------------|
----------5--5-55---7-777---9--9-99-----|
-2--222---5--5-55---7-777---x--x-xx-----|
-2--222---3--3-33---5-555---7--7-77-----|
-0--000---------------------------------| 2x



Pre-Chorus:
----------------------------------------|
----------------------------------------|
9999999912121212121212121111111111111111
----------------------------------------|
----------------------------------------|
----------------------------------------|



----------------------------------------------------------|
----------------------------------------------------------|
141414141414141499999999--------111111111111111199999999--|
------------------------99999999--------------------------|
----------------------------------------------------------|
----------------------------------------------------------| 2x



--------------------------------------------|
--------------------------------------------|
---5555-12121212-14141414-17171717----------|
---5555-12121212-14141414-17171717----------|
---7777-10101010-12121212-15151515----------|
--------------------------------------------|



--------------------------------------------|
--------------------------------------------|
---5555-12121212----------------------------|
---5555-12121212-10101010-77777-------------|
---7777-10101010-10101010-77777-------------|
-----------------8 8 8 8 -55555-------------|



--------------------------------------------|
--------1010------8----7--------------------|
--------9-9-------7----6--------------------|
--2222--7-7-------5----4--------------------|
--2222--------------------------------------|
--0000-------0000----00---------------------| 2x



--------------------------------------------|
--------------------------------------------|
--55555555-22222222-------------------------|
--55555555-22222222-------------------------|
--33333333-00000000-------------------------|
--------------------------------------------|



--------------------------------------------|
--------1010------8----7--------------------|
--------9-9-------7----6--------------------|
--2222--7-7-------5----4--------------------|
--2222--------------------------------------|
--0000-------0000----00---------------------| 2x



--------------------------------------------|
--------------------------------------------|
--55555555-77777777-------------------------|
--55555555-77777777-------------------------|
--33333333-55555555-------------------------|
--------------------------------------------|



Chorus:
----------------------------------------|
----------------------------------------|
----------5--5-55---7-777---2--2-22-----|
-2--222---5--5-55---7-777---2--2-22-----|
-2--222---3--3-33---5-555---0--0-00-----|
-0--000---------------------------------|



----------------------------------------|
----------------------------------------|
----------5--5-55---7-777---9--9-99-----|
-2--222---5--5-55---7-777---x--x-xx-----|
-2--222---3--3-33---5-555---7--7-77-----|
-0--000---------------------------------| 2x



------------------------------------------|
------------------------------------------|
-----------5--------7--------2------------|
--2--------5--------7--------2------------|
--2--------33333333-55555555-00000000-----|
--00000000--------------------------------|
   .......  .......  .......  .......



------------------------------------------|
------------------------------------------|
-----------5--------7--------999999-------|
--2--------5--------7--------xxxxxx-------|
--2--------33333333-55555555-777777-------|
--00000000--------------------------------|
   .......  .......  .......



----------------------------------------|
----------------------------------------|
9999999912121212121212121111111111111111
----------------------------------------|
----------------------------------------|
----------------------------------------|



---------------------------------------------------------|
---------------------------------------------------------|
141414141414141499999999--------111111111111111199999999-|
------------------------99999999-------------------------|
---------------------------------------------------------|
---------------------------------------------------------|



--------------------------------------------|
--------------------------------------------|
---5555-12121212-14141414-17171717----------|
---5555-12121212-14141414-17171717----------|
---7777-10101010-12121212-15151515----------|
--------------------------------------------|



--------------------------------------------|
--------------------------------------------|
---5555-12121212----------------------------|
---5555-12121212-10101010-77777-------------|
---7777-10101010-10101010-77777-------------|
-----------------8 8 8 8 -55555-------------|



--------------------------------------------|
--------1010------8----7--------------------|
--------9-9-------7----6--------------------|
--2222--7-7-------5----4--------------------|
--2222--------------------------------------|
--0000-------0000----00---------------------| 2x



--------------------------------------------|
--------------------------------------------|
--55555555-22222222-------------------------|
--55555555-22222222-------------------------|
--33333333-00000000-------------------------|
--------------------------------------------|



--------------------------------------------|
--------1010------8----7--------------------|
--------9-9-------7----6--------------------|
--2222--7-7-------5----4--------------------|
--2222--------------------------------------|
--0000-------0000----00---------------------| 2x



--------------------------------------------|
--------------------------------------------|
--55555555-77777777-------------------------|
--55555555-77777777-------------------------|
--33333333-55555555-------------------------|
--------------------------------------------|



Chorus:
----------------------------------------|
----------------------------------------|
----------5--5-55---7-777---2--2-22-----|
-2--222---5--5-55---7-777---2--2-22-----|
-2--222---3--3-33---5-555---0--0-00-----|
-0--000---------------------------------|



----------------------------------------|
----------------------------------------|
----------5--5-55---7-777---9--9-99-----|
-2--222---5--5-55---7-777---x--x-xx-----|
-2--222---3--3-33---5-555---7--7-77-----|
-0--000---------------------------------| 2x



------------------------------------------|
------------------------------------------|
-----------5--------7--------2------------|
--2--------5--------7--------2------------|
--2--------33333333-55555555-00000000-----|
--00000000--------------------------------|
   .......  .......  .......  .......



------------------------------------------|
------------------------------------------|
-----------5--------7--------999999-------|
--2--------5--------7--------xxxxxx-------|
--2--------33333333-55555555-777777-------|
--00000000--------------------------------|
   .......  .......  .......



--------------------------------------------|
--------------------------------------------|
-----5--2-----------------------------------|
-2---5--2--2--5--7--2-----------------------|
-2---3--0--2--5--7--2-----------------------|
-0---------0--3--5--0-----------------------| 2x



"I am not your future...."          (something like that)
--------------------------------------------|
--------------------------------------------|
--------------------------------------------|
--------------------------------------------|
---77777777777777775577777777777777777------|
--------------------------------------------|



During solo:
--------------------------------------------|
--------------------------------------------|
--------------------------------------------|
---1010101010--7777-------------------------|
---1010101010--7777-------------------------|
---8  8  8  8--5555-------------------------|



--------------------------------------------|
--------1010------8----7--------------------|
--------9-9-------7----6--------------------|
--2222--7-7-------5----4--------------------|
--2222--------------------------------------|
--0000-------0000----00---------------------| 2x



--------------------------------------------|
--------------------------------------------|
--55555555-77777777-------------------------|
--55555555-77777777-------------------------|
--33333333-55555555-------------------------|
--------------------------------------------|



Breakdown:
--------------------------------------------|
--------1010------8----7--------------------|
--------9-9-------7----6--------------------|
--2222--7-7-------5----4--------------------|
--2222--------------------------------------|
--0000-------0000----00---------------------| 6x



--------------------------------------------|
--------------------------------------------|
--55555555-77777777-------------------------|
--55555555-77777777-------------------------|
--33333333-55555555-------------------------|
--------------------------------------------|



Chorus:
----------------------------------------|
----------------------------------------|
----------5--5-55---7-777---2--2-22-----|
-2--222---5--5-55---7-777---2--2-22-----|
-2--222---3--3-33---5-555---0--0-00-----|
-0--000---------------------------------|



----------------------------------------|
----------------------------------------|
----------5--5-55---7-777---9--9-99-----|
-2--222---5--5-55---7-777---x--x-xx-----|
-2--222---3--3-33---5-555---7--7-77-----|
-0--000---------------------------------| 2x



Outro:
------------------------------------------|
------------------------------------------|
-----------5--------7--------2------------|
--2--------5--------7--------2------------|
--2--------33333333-55555555-00000000-----|
--00000000--------------------------------|
   .......  .......  .......  .......



------------------------------------------|
------------------------------------------|
-----------5--------7--------999999-------|
--2--------5--------7--------xxxxxx-------|
--2--------33333333-55555555-777777-------|
--00000000--------------------------------|
   .......  .......  .......               2x



--------------------------------------------|
--------------------------------------------|
--------------------------------------------|
--2-----------------------------------------|
--2-----------------------------------------|
--0-----------------------------------------|
Добавлено: 11.06.2013
Вам также может быть интересно:
Другие материалы по этой песне:
  • Аккорды и текст

Страница создана 11.06.2013
http://primanota.ru/dark-age/cold-chords.htm
Привет, Гость.
Предлагаем пройти революционный курс по гитаре.
Подарок от PrimaNota.Ru, забирай!