PrimaNota.ru - самый крупный в мире бесплатный архив песенных текстов, аккордов, табулатур и нот


Daphne Willis - One By One - таба, видео

Регистрация Запомнить меня
Войти через:  Facebook Google Twitter Vk Yandex Mail.ru

Daphne Willis - One By One - таба, видео

Печатать
Просмотров: 106
e |-------------------------------------------------------------------|
B |--1-1-1-1-3-3-3-3-0-0-0-0-1-1-1-1-1-1-1-1-3-3-3-3-0-0-0-0-1-1-1-1--|
G |-------------------------------------------------------------------|
D |-------------------------------------------------------------------|
A |-------------------------------------------------------------------|
E |-------------------------------------------------------------------|


e |-----------------------------------|
B |--1-1-1-1-3-3-3-3-0-0-0-0-1-1-1-1--|
G |-----------------------------------|
D |-----------------------------------|
A |-----------------------------------|
E |-----------------------------------|
     I made a mess of the moments
     One by one

e |-----------------------------------|
B |--1-1-1-1-3-3-3-3-0-0-0-0-1-1-1-1--|
G |-----------------------------------|
D |-----------------------------------|
A |-----------------------------------|
E |-----------------------------------|
     I've got a stack of disappointments
     And then some

e |-----------------------------------|
B |--1-1-1-1-3-3-3-3-0-0-0-0-1-1-1-1--|
G |-----------------------------------|
D |-----------------------------------|
A |-----------------------------------|
E |-----------------------------------|
     I've been tryin' to find the light
     I've been blinded by the sun

e |-----------------------------------|
B |--1-1-1-1-3-3-3-3-0-0-0-0-1-1-1-1--|
G |-----------------------------------|
D |-----------------------------------|
A |-----------------------------------|
E |-----------------------------------|
     Gotta make it through the nights
     One by one it's

[Strum these chords once each]
     C  E
     So true
              Am                    G            D
     When you break there's nothin' else you can do
     F                 G  Am
     Get it together
     F                        G  Am
     It can only get better
     F                               E
     I gotta pick up the pieces oh oh
     One by one

e |-----------------------------------|
B |--1-1-1-1-3-3-3-3-0-0-0-0-1-1-1-1--|
G |-----------------------------------|
D |-----------------------------------|
A |-----------------------------------|
E |-----------------------------------|
     I've got a ticket to Chicago 
     To reconcile

e |-----------------------------------|
B |--1-1-1-1-3-3-3-3-0-0-0-0-1-1-1-1--|
G |-----------------------------------|
D |-----------------------------------|
A |-----------------------------------|
E |-----------------------------------|
     I've got a number in my pocket 
     That I need to dial

e |-----------------------------------|
B |--1-1-1-1-3-3-3-3-0-0-0-0-1-1-1-1--|
G |-----------------------------------|
D |-----------------------------------|
A |-----------------------------------|
E |-----------------------------------|
     So many words to say
     So much to be done

e |-----------------------------------|
B |--1-1-1-1-3-3-3-3-0-0-0-0-1-1-1-1--|
G |-----------------------------------|
D |-----------------------------------|
A |-----------------------------------|
E |-----------------------------------|
     And I've got to change my ways
     One by one it's

[Strum these chords once each]
     C  E
     So true
              Am                    G            D
     When you break there's nothin' else you can do
     F                 G  Am
     Get it together
     F                        G  Am
     It can only get better
     F                               E
     I gotta pick up the pieces oh oh
     One by

[Strum these chords with downstrokes]
     Dm  G
     One day oh
     C                  C7
     It's gonna be okay
     It's gonna be alright

     Dm  G
     Toooday
     C                        C7
     I'm gonna be just fine I
     Made up my mind
[Strum these chords once each]
     F                 G  Am
     Get it together
     F                        G  Am
     It can only get better
     F                               E
     I gotta pick up the pieces oh oh
     One by one
     
e |-------------------------------------------------------------------|
B |--1-1-1-1-3-3-3-3-0-0-0-0-1-1-1-1-1-1-1-1-3-3-3-3-0-0-0-0-1-1-1-1--|
G |-------------------------------------------------------------------|
D |-------------------------------------------------------------------|
A |-------------------------------------------------------------------|
E |-------------------------------------------------------------------|

e |-----------------------------------|
B |--1-1-1-1-3-3-3-3-0-0-0-0-1-1-1-1--|
G |-----------------------------------|
D |-----------------------------------|
A |-----------------------------------|
E |-----------------------------------|
    One by one

e |-----------------------|
B |--1-1-1-1-3-3-3-3-0-0--|
G |-----------------------|
D |-----------------------|
A |-----------------------|
E |-----------------------|
     I've got a ticket to Chicago
Добавлено: 16.05.2012
Другие материалы по этой песне:
  • Аккорды и текст

Страница создана 16.05.2012
http://primanota.ru/daphne-willis/one-by-one-chords.htm
Привет, Гость.
Предлагаем пройти революционный курс по гитаре.
Подарок от PrimaNota.Ru, забирай!