PrimaNota.ru - самый крупный в мире бесплатный архив песенных текстов, аккордов, табулатур и нот


Danzig - Long Way Back From Hell - текст песни, таба, бас-таба, видео

Регистрация Запомнить меня
Войти через:  Facebook Google Twitter Vk Yandex Mail.ru

Danzig - Long Way Back From Hell - текст песни, таба, бас-таба, видео

Печатать
Просмотров: 273
Уроки эстрадного вокала в Санкт-Петербурге
Авторы музыки: Glenn Danzig
Авторы текста: Glenn Danzig
Long Way Back From Hell, by Danzig.
-----------------------------------
I needed a more detailed TAB than those available to give to my bandmates,
so we could play this song despite having minimal rehearsal time. Hence this
version. It is based off of "version 2" by rattlehead.coolio@hotmail.com,
which is an excellent tab in its own right.

Intro:

E|-----------------------------------|-----------------------------------|
B|-----------------------------------|-----------------------------------|
G|-----------------------------------|-----------------------------------|
D|-----------------------------------|-----------------------------------|
A|--9--------------------------------|-----------------------------------|
E|--7--------------------------------|--/5~~~~~~~~~~~~~~~~~~~~~~~~~~~~~--|
         dive w. bar

E|-----------------------------------|-----------------------------------|
B|-----------------------------------|-----------------------------------|
G|-----------------------------------|-----------------------------------|
D|-----------------------------------|-----------------------------------|
A|--12-------------------------------|-----------------------------------|
E|--10-------------------------------|--/5~~~~~~~~~~~~~~~~~~~~~~~~~~~~~--|
         dive w. bar
    B
E|-----------------------------------|
B|-----------------------------------|
G|-----------------------------------|
D|-----------------------------------|
A|-----------------------------------|
E|--/7~~~~~~~~~~~~~~~~~~~~~~~~~~~~~--|
          Let feedback ring                             dive w. bar
     B
E|-----------------------------------|-----------------------------------|
B|-----------------------------------|-----------------------------------|
G|--/7------v--------v---------------|--4--------------------------------|
D|--/7------v------------------------|--4--------------------------------|
A|--/5------v--------v---------------|--2--------------------------------|
E|-----------------------------------|-----------------------------------|
                         dive w. bar       dive w. bar
     B
E|-----------------------------------|-----------------------------------|
B|-----------------------------------|-----------------------------------|
G|--/7------v-v------v-v-------------|--4--------------------------------|
D|--/7------v-v------v-v-------------|--4--------------------------------|
A|--/5------v-v------v-v-------------|--2--------------------------------|
E|-----------------------------------|-----------------------------------|
                         dive w. bar       dive w. bar [Guit. 2 makes “ponies”]
     B
E|-----------------------------------|-----------------------------------|
B|-----------------------------------|-----------------------------------|
G|--/7------v--------v---------------|--4--------------------------------|
D|--/7------v--------v---------------|--4--------------------------------|
A|--/5------v--------v---------------|--2--------------------------------|
E|-----------------------------------|-----------------------------------|
                         dive w. bar       dive w. bar
     B                                  G#
E|-----------------------------------|-----------------------------------|
B|-----------------------------------|--5b(7)--5b(7)--5b(7)--(7)r5p3-----|
G|--/7---v---v---v---v---v---v---\---|------------------------------h4\--|
D|--/7---v---v---v---v---v---v---\---|-----------------------------------|
A|--/5---v---v---v---v---v---v---\---|-----------------------------------|
E|-----------------------------------|-----------------------------------|

Intro to Verse 1:
    B               F  E                B               F  E   C
E|-----------------------------------|-----------------------------------|
B|-----------------------------------|-----------------------------------|
G|--0-------------x-10\9------x---x--|------------------10\9-------------|
D|--0-------------x-10\9------x---x--|--9-------------x-10\9---10--------|
A|--2-------------x-8-\7------x---x--|--9-------------x-8-\7---10--------|
E|-----------------------------------|--7-------------x--------8---xxxx--|
    Haaaaaaaaaaaayyyyyy!

    B               F  E                B               F  E   C
E|-----------------------------------|-----------------------------------|
B|-----------------------------------|-----------------------------------|
G|--0-------------x-10\9------x---x--|------------------10\9-------------|
D|--0-------------x-10\9------x---x--|--9-------------x-10\9---10--------|
A|--2-------------x-8-\7------x---x--|--9-------------x-8-\7---10--------|
E|-----------------------------------|--7-------------x--------8---------|


Verse 1 (play four times):

    B               F  E                B               F  E   C
 |-----------------------------------|-----------------------------------|
o|-----------------------------------|-----------------------------------|o
 |--4-------------x-10\9----------x--|------------------10\9-------------|
 |--4-------------x-10\9----------x--|--9-------------x-10\9---10--------|
o|--2-------------x-8-\7----------x--|--9-------------x-8-\7---10--------|o
 |-----------------------------------|--7-------------x--------8---------|
    Sold into slavery down in new Orleans, goddess of the bayou light.
    Black dogs head on the killing bed, severed and left to bleed.
    There on fire in the corner of the world, there in misery.
    There on fire in the corner of the world, left for God to see.

Chorus:
    B               A                   B               A
E|-----------------------------------|-----------------------------------|
B|-----------------------------------|-----------------------------------|
G|-----------------------------------|-----------------------------------|
D|--9---------------7----------------|--9---------------7----------------|
A|--9---------------7----------------|--9---------------7----------------|
E|--7---------------5----------------|--7---------------5----------------|
    Do you want to take a life… Do you want to cross that line… ‘Cause it's a

    G       A       B                   G       A       F#
E|-----------------------------------|--------------------------------------------|
B|-----------------------------------|-------------------------5b(7)--(7)r5p3-----|
G|-----------------------------------|---------------------------------------h4\--|
D|--5-------7-------9----------------|--5-------7-------4-------------------------|
A|--5-------7-------9----------------|--5-------7-------4-------------------------|
E|--3-------5-------7----------------|--3-------5-------2-------------------------|
    long way back from hell, and you dont    want to go with…      …meeeeeee!

Play intro to Verse 2 = same as intro to verse 1.

Verse 2 (play four times):

    B               F  E                B               F  E   C
 |-----------------------------------|-----------------------------------|
o|-----------------------------------|-----------------------------------|o
 |--4-------------x-10\9----------x--|------------------10\9-------------|
 |--4-------------x-10\9----------x--|--9-------------x-10\9---10--------|
o|--2-------------x-8-\7----------x--|--9-------------x-8-\7---10--------|o
 |-----------------------------------|--7-------------x--------8---------|
    Poison father of the human race,    God of the tainted blood.
    Malevolence sneaking up the spine of the world,ready for the bastard son.
    There on fire In the veins of man,  there in misery.
    There on fire In the veins of man,  left for God to see.

Play Chorus

Rhythm during guitar solo:

    B               D       G   A       B               D       G   A
E|-----------------------------------|-----------------------------------|
B|-----------------------------------|-----------------------------------|
G|------------------7----------------|------------------7----------------|
D|--9---------------7-------5---7----|--9---------------7-------5---7----|
A|--9---------------5-------5---7----|--9---------------5-------5---7----|
E|--7-----------------------3---5----|--7-----------------------3---5----|

    B               D       G   A       B               D       B A F#F E D
E|-----------------------------------|----------------------------------------|
B|-----------------------------------|----------------------------------------|
G|------------------7----------------|------------------7---------------------|
D|--9---------------7-------5---7----|--9---------------7------/9-7-----------|
A|--9---------------5-------5---7----|--9---------------5-----------9-8-7-----|
E|--7-----------------------3---5----|--7---------------------------------10--|

 
Break:

    B
E|-----------------------------------|-----------------------------------|
B|-----------------------------------|-----------------------------------|
E|-----------------------------------|-----------------------------------|
B|-----------------------------------|-----------------------------------|
E|-----------------------------------|-----------------------------------|
B|--7~~~~~~~~~~~~~~~~~~~~~~~~~~~~~~--|--/5~~~~~~~~~~~~~~~~~~~~~~~~~~~~~--|

                        Do you want to take a life…

E|-----------------------------------|-----------------------------------|
B|-----------------------------------|-----------------------------------|
E|--7--------------------------------|-----------------------------------|
B|--7--------------------------------|-----------------------------------|
E|-----------------------------------|-----------------------------------|
B|-----------------------------------|--/5~~~~~~~~~~~~~~~~~~~~~~~~~~~~~--|
         dive w. bar
                       Do you want to take a life…

E|-----------------------------------|-----------------------------------|
B|-----------------------------------|-----------------------------------|
G|-----------------------------------|-----------------------------------|
D|-----------------------------------|-----------------------------------|
A|--9--------------------------------|-----------------------------------|
E|--7--------------------------------|--/5~~~~~~~~~~~~~~~~~~~~~~~~~~~~~--|
         dive w. bar
                  Do you want to cross that line…

E|-----------------------------------|-----------------------------------|
B|-----------------------------------|--5b(7)--5b(7)--5b(7)--(7)r5p3-----|
E|--7--------------------------------|------------------------------h4\--|
B|--7--------------------------------|-----------------------------------|
E|-----------------------------------|-----------------------------------|
B|-----------------------------------|-----------------------------------|
         dive w. bar
                Do you want to cross that…                    …liiiiiiine!

Play intro to Verse 3 = same as intro to verse 1 (w. additional lead guitar).

Play Verse 3 = same as Verse 1.

Last Chorus:
    B               A                   B               A
E|-----------------------------------|-----------------------------------|
B|-----------------------------------|-----------------------------------|
G|-----------------------------------|-----------------------------------|
D|--9---------------7----------------|--9---------------7----------------|
A|--9---------------7----------------|--9---------------7----------------|
E|--7---------------5----------------|--7---------------5----------------|
    Do you want to take a life… Do you want to cross that line… ‘Cause it's a

    G       A       B                       G       A      B
E|---------------------------------------|--------------------------------------|
B|---------------------------------------|--------------------------------------|
G|---------------------------------------|--------------------------------------|
D|--5-------7----------9----9----9----9--|--5-------7---------9----9----9----9--|
A|--5-------7----------9----9----9----9--|--5-------7---------9----9----9----9--|
E|--3-------5-------7777-7777-7777-7777--|--3-------5------7777-7777-7777-7777--|
                    xxx  xxx  xxx  xxx                     xxx  xxx  xxx  xxx
    long way back from hell, and you dont want to go with me.   Hey, it's a

    G       A       B                       D            E
E|---------------------------------------|------------------------------------|
B|---------------------------------------|------------------------------------|
G|---------------------------------------|--7---------------------------------|
D|--5-------7----------9----9----9----9--|--7------------2--------------------|
A|--5-------7----------9----9----9----9--|--5------------0--------------------|
E|--3-------5-------7777-7777-7777-7777--|--5------------0--------------------|
                    xxx  xxx  xxx  xxx                   let ring until fade.
    long way back from hell, and you dont   want         to go…

 
Solo:

e|-----------------------------------------------------------------------------|
B|-----------------------------------------------------------------------------|
G|-9(11)~-9(11)~-9(11)~-9(11)~-9(11)~-9(11)~-9(11)~-9(11)~--9(11r9)p7-9p8p7----|
D|---------------------------------------------------------------------------9-|
A|-----------------------------------------------------------------------------|
E|-----------------------------------------------------------------------------|

e|--------------------------------|-/15-15\-/17-17\--/15-15\-/17-17\-|
B|-9(11)(9)p7---------------------|-/15-15\-/17-17\--/15-15\-/17-17\-|
G|-9(11)(9)p7-9-7---7-------------|----------------------------------|
D|----------------9---9p8p7---7---|----------------------------------|
A|--------------------------9-----|----------------------------------|
E|------------------------------7-|----------------------------------|

e|-10-13-12-10-13-12-10-13-12-10-13-12-10-13(15)(13)p10-----|
B|------------------------------------------------------12\-|
G|----------------------------------------------------------|
D|----------------------------------------------------------|
A|----------------------------------------------------------|
E|----------------------------------------------------------|

e|-------------------------------------------------17(19)~-17p14-17(19)-(19)-(19)-|
B|-------------------------------15-14-12-17-15-14--------------------------------|
G|----------------------15-14-12--------------------------------------------------|
D|-------------15-14-12-----------------------------------------------------------|
A|-15-15-14-12--------------------------------------------------------------------|
E|--------------------------------------------------------------------------------|

e|-22(24)p17-19~\-|-/20-22-24(26)-24(26)-24(26)-(26)-(26)-(26)-(26)-(26)-|
B|----------------|------------------------------------------------------|
G|----------------|------------------------------------------------------|
D|----------------|------------------------------------------------------|
A|----------------|------------------------------------------------------|
E|----------------|------------------------------------------------------|

e|-19-22p21p19----19~-|--------------------------------|
B|-------------22-----|-10(12)-10--9--7----------------|
G|--------------------|------------------9--7----------|
D|--------------------|------------------------9~~~~~~-|
A|--------------------|--------------------------------|
E|--------------------|--------------------------------|


b = bend
v = vibrato bar dip
~ = vibrato
/ = slide up
\ = slide down
h = hammer on
p = pull off
x (inside TAB) = muted note
x (under TAB) = palm muting

Добавлено: 28.04.2012
Другие материалы по этой песне:
  • Аккорды и текст

Страница создана 28.04.2012
http://primanota.ru/danzig/long-way-back-from-hell-chords.htm
Привет, Гость.
Предлагаем пройти революционный курс по гитаре.
Подарок от PrimaNota.Ru, забирай!