PrimaNota.ru - самый крупный в мире бесплатный архив песенных текстов, аккордов, табулатур и нот


Danosongs - The Boom Born Blues - таба, видео

Регистрация Запомнить меня
Войти через:  Facebook Google Twitter Vk Yandex Mail.ru

Danosongs - The Boom Born Blues - таба, видео

Печатать
Просмотров: 74
-------------------------------------------------------------------------------
                             The Boom Born Blues - Danosongs (Dan-O)
-------------------------------------------------------------------------------
Tabbed by: Mieciu
E-mail: mieciu0077@outlook.com

Tuning: Standard (EADGHe)

e|---------------------------------------------------------------------------|
B|---------------------------------------------------------------------------|
G|---------------------------------------------------------------------------|
D|---------------------------------------------------------------------------|
A|-0--3-0-3-0----0-3-0-----0----0-0-0-0--3-0-3-0----0-3-0---0----0-3-0-------|
E|-----------------------3--------------------------------3------------------|

e|---------------------------------------------------------------------------|
B|---------------------------------------------------------------------------|
G|---------------------------------------------------------------------------|
D|--0-0---0--------0-0---0--0------------------------------------------------|
A|------3---3----3-----3------3-3----0--3-0-3-0----0-3-0---0--0--------------|
E|-------------------------------------------------------3-------3-3---------|

e|---------------------------------------------------------------------------|
B|---------------------------------------------------------------------------|
G|---------------------------------------------------------------------------|
D|---------------------0-0----0---0------------------------------------------|
A|-----------0-0--3-3-------3-------3-3----0--3-0-3-0---0-3-0---0------------|
E|-0-0--3-3---------------------------------------------------3--------------|
Добавлено: 25.10.2015
Другие материалы по этой песне:
  • Аккорды и текст

Страница создана 25.10.2015
http://primanota.ru/danosongs/boom-born-blues-chords.htm
Привет, Гость.
Предлагаем пройти революционный курс по гитаре.
Подарок от PrimaNota.Ru, забирай!