PrimaNota.ru - самый крупный в мире бесплатный архив песенных текстов, аккордов, табулатур и нот


Danny Vola - No Hands - таба, видео

Регистрация Запомнить меня
Войти через:  Facebook Google Twitter Vk Yandex Mail.ru

Danny Vola - No Hands - таба, видео

Печатать
Просмотров: 77
Check out Danny Vola and get his new mixtape at
http://dannyvola.com/

This is his acoustic rendition of "No Hands" by Wacka Flocka Flame
Capo IV

Intro/Chorus:
 Am(7)                    G6
-------------0------------------------0-----------|
----1--------x--1------------3--------x--3--------|
-------2-----x-----0------------0-----x-----0-----|
----------2--x--------2------------0--x--------0--|
-0-----------x------------2-----------x-----------|
--------------------------------------------------|

 C                       G
-------------0------------------------------------|
----1--------x--1-----------3---------------------|
-------0-----x-----0-----------0------------------|
----------2--x--------2-----------0--2--0---------|
-3-----------x-----------------------------3--2---|
-------------------------3------------------------|


 Am(7)                    G6
-------------0------------------------0-----------|
----1--------x--1------------3--------x--3--------|
-------2-----x-----0------------0-----x-----0-----|
----------2--x--------2------------0--x--------0--|
-0-----------x------------2-----------x-----------|
--------------------------------------------------|

 C                       G
-------------0------------------------------------|
----1--------x--1-----------3---------------------|
-------0-----x-----0-----------0------------------|
----------2--x--------2-----------0---------------|
-3-----------x------------------------------------|
-------------------------3------------------------|


Verse:
 Am7         Csus9          C           G
-0------0-x--------------|--0------0-x--3---3-----|
-0h1----1-x--3---3~--x---|--0h1----1-x--3---3---x-|
-0------0-x--0---0~--x---|--0------0-x--0---0---x-|
-2------2-x--2---2~--x---|--2------2-x--0---0---x-|
-0------0-x--3---3~--x---|--3------3-x--2---2---x-|
-------------------------|--------------3---3-----|



Verse:
         Am7        Csus9 
All that a** in yo jeans, 
         C                    G
kid wale beat. Kid and Roscoe skeet 
               Am7                   Csus9
Long hair she don't care When she walks she gets stares 
                 C                     G
Brown skin or a yellow bone DJ this my favorite song 
                Am7                      Csus9
So Imma make it thunderstorm Blood want it flocka yea 
                C                           G
throw it, f it, I dont care. Glasses flying everywhere 
              Am7                    Csus9
tap my partna Roscoe like "brah I'm drunk as hell" 
           C                         G 
Can't you tell, goose we been spent fifty stacks so f it 
      Am7                            Csus9                    
Well I'm tryna to hit the hotel with two girls that swallow me 
     C                         G
Take this d and swallow bay mascato got her freaky 
        Am7                 Csus9
Hey you got me in a trance, please take of yo pants 
C                         G        
P--pop on a handstand you got me sweating please pass me a fan DA**!! 

Chorus: 
Am(7)                   G6
Girl the way you movin' got me in a trance 
C             G
Dj turn me up ladies dis yo jam (come on) 
Am7                  G6
Imma sip mascato and you go loose dem pants 
C                                  G
And Imma throw dis money while you do it no hands 
Am7                 G6                       C         G
Girl drop it to the floor I love the way yo booty goooo All I wanna 
Am7                          G6                                  C     G
do is sit back and watch you move and I'll proceed to throw this cash 

Verse:
         Am7                           Csus9
She said look ma', No Hands. she said, look ma', No Hands...

Ect. Ect.
The patter stays the same throughout
Добавлено: 26.07.2012
Вам также может быть интересно:
Другие материалы по этой песне:

Страница создана 26.07.2012
http://primanota.ru/danny-vola/no-hands-chords.htm
Привет, Гость.
Предлагаем пройти революционный курс по гитаре.
Подарок от PrimaNota.Ru, забирай!