PrimaNota.ru - самый крупный в мире бесплатный архив песенных текстов, аккордов, табулатур и нот


Danny Vera - Voetbal International - таба, видео

Регистрация Запомнить меня
Войти через:  Facebook Google Twitter Vk Yandex Mail.ru

Danny Vera - Voetbal International - таба, видео

Печатать
Просмотров: 100
-------------------------------------------------------------------------------
                  VOETBAL INTERNATIONAL (INTRO) - Danny Vera
-------------------------------------------------------------------------------
Tabbed by: Tim van Kester

Tuning: Standard

This is the famous guitar intro by Danny Vera, played at the beginning of
Gouden Televizier 2011-winner Voetbal International.
Danny Vera's website can be found on http://www.dannyvera.com/

e|---------------------------------------------------------------------------|
B|-----------5--------7--7--5---------------5-5h7~---7--8--9-----------------|
G|---5-5---5---5h7~---5--5--3-------5-5---5----------5--6--7-----------------|
D|-7-----7------------7--7--5-----7-----7------------7--8--9-----------------|
A|--------------------5--5--3------------------------5--6--7-----------------|
E|---------------------------------------------------------------------------|

e|---------------------------------------------------------------------------|
B|------------8-7~----8--8-(7)--------------------------------------------7--|
G|---5-5---5----------7--7--6---------------------------------------------7--|
D|-7-----7------------8--8--5--------------------------------7--5---------7--|
A|--------------------7--7--7--------5--8-----4--7-----5--8---------------5--|
E|--------------------------5-----6--------5--------6--------------8---------|



************************************

| /   slide up
| \   slide down
| h   hammer-on
| p   pull-off
| ~   vibrato
| +   harmonic
| x   Mute note
| b   Bend
| pb  Pre-bend
| br  Bend release
| pbr Pre-bend release
| brb Bend release bend

************************************
Добавлено: 30.07.2013
Другие материалы по этой песне:
  • Аккорды и текст

Страница создана 30.07.2013
http://primanota.ru/danny-vera/voetbal-international-chords.htm
Привет, Гость.
Предлагаем пройти революционный курс по гитаре.
Подарок от PrimaNota.Ru, забирай!