PrimaNota.ru - самый крупный в мире бесплатный архив песенных текстов, аккордов, табулатур и нот


Danny Grawbarger - Apollo Opus - таба, видео

Регистрация Запомнить меня
Войти через:  Facebook Google Twitter Vk Yandex Mail.ru

Danny Grawbarger - Apollo Opus - таба, видео

Печатать
Просмотров: 67
Intro: Play 4 times (Clean Guitar)

1--------------------0---------------------------------8-----------|
2--------1-----------------------------8---------------------------|
3------2---2-------2---2------------10---10---------10---10--------|
4----2-------2---2-------2-------10---------10---10---------10-----|
5--0-----------0-----------0---8---------------8-------------------|
6------------------------------------------------------------------|
                                                  End on this chord
1--------------------5---------------8---8-7--5-4---------0--------|
2--------5------------------------------------------------1--------|
3------7---7-------7---7----------10-----8-7--5-4---------2--------|
4----7-------7---7-------7-----10-------------------------2--------|
5--5-----------5-------------8----------------------------0--------|
6------------------------------------------------------------------|

Verse: Play 4 times (Distorted Guitar)

1------------------------------------------------------------------|
2------------------------------------------------------------------|
3--2---------10--------7---10-9-7----------------------------------|
4--2---------10--------7----------10-9-7---------------------------|
5--0--0-0-0--8--0-0-0--5-----------------8-7-5---------------------|
6----------------------------------------------8-7-5---------------|

1--------------------------13-12-10--------------------------------|
2-----------------------------------13-12-10-----------------------|
3--2---------10--------7---------------------10-9-7----------------|
4--2---------10--------7----------------------------10-9-7---------|
5--0--0-0-0--8--0-0-0--5-------------------------------------------|
6------------------------------------------------------------------|

Pre-Chorus: Play 2 times


1------------------------------------------------------------------|
2------------------------------------------------------------------|
3--2------------------9-10-9---10------------------9-10-9----------|
4--2--9-10-9-14-12-14----------10--9-10-9-14-12-14-----------------|
5--0---------------------------8-----------------------------------|
6------------------------------------------------------------------|

1-----------------------------------------12-17-12-----------------|
2--------------------------------------13----------13--------------|
3--7------------------9-10-9---10---14----------------14-----------|
4--7--9-10-9-14-12-14----------10----------------------------------|
5--5---------------------------8-----------------------------------|
6------------------------------------------------------------------|

Pre-Chorus Ending:

1------------------------------------------------12-------12-------|
2---------------------------------------------13-------13----------|
3--14-13-14-16-17-16-17-19-21-19-----------14-------14-------------|
4--------------------------------22-21-19--------------------------|
5------------------------------------------------------------------|
6------------------------------------------------------------------|

1--------13-------10-------12-------12-------13-------10-----------|
2-----15-------12-------13-------13-------15-------12--------------|
3--16-------13-------14-------14-------16-------13-----------------|
4------------------------------------------------------------------|
5------------------------------------------------------------------|
6------------------------------------------------------------------|

1--------12-------12-------13-------10-------12-17-12--------------|
2-----13-------13-------15-------12-------13---------13------------|
3--14-------14-------16-------13-------14---------------14---------|
4------------------------------------------------------------------|
5------------------------------------------------------------------|
6------------------------------------------------------------------|

Verse: Play 1 time

1------------------------------------------------------------------|
2------------------------------------------------------------------|
3--2---------10--------7---10-9-7----------------------------------|
4--2---------10--------7----------10-9-7---------------------------|
5--0--0-0-0--8--0-0-0--5-----------------8-7-5---------------------|
6----------------------------------------------8-7-5---------------|

1--------------------------13-12-10--------------------------------|
2-----------------------------------13-12-10-----------------------|
3--2---------10--------7---------------------10-9-7----------------|
4--2---------10--------7----------------------------10-9-7---------|
5--0--0-0-0--8--0-0-0--5-------------------------------------------|
6------------------------------------------------------------------|

Chorus: Play 4 times

1------------------------------------------------------------------|
2------------------------------------------------------------------|
3------------------------------------------------------------------|
4----10---9---12---10-----10---9---12---10-----10--9---12--10------|
5--0----0---0----0------8----8---8----8----------------------------|
6--------------------------------------------10--10--10--10--------|

1------------------------------------------------------------------|
2------------------------------------------------------------------|
3------------------------------------------------------------------|
4----9---10---12---14----------------------------------------------|
5--7---7----7----7-------------------------------------------------|
6------------------------------------------------------------------|

First Solo

1---------------------17----17-18-17-18-20-18-17--20-20-20-20------|
2--20-20--20-20-20-20----20----------------------------------------|
3------------------------------------------------------------------|
4------------------------------------------------------------------|
5------------------------------------------------------------------|
6------------------------------------------------------------------|

1--22-20-18-20-18-17--22-20-18-20-18-17--22-20-18-20-18-17---------|
2------------------------------------------------------------------|
3------------------------------------------------------------------|
4------------------------------------------------------------------|
5------------------------------------------------------------------|
6------------------------------------------------------------------|

1--22-20-18-20-18-17--20-18-17-18-17----17-------------------------|
2------------------------------------20----20-18-20-18-17-18-17----|
3---------------------------------------------------------------19-|
4------------------------------------------------------------------|
5------------------------------------------------------------------|
6------------------------------------------------------------------|

1------------------------------------------------------------------|
2--17----------------16-17-16--------------------------------------|
3-----19-17-19-17-16----------17-19--------------------------------|
4------------------------------------------------------------------|
5------------------------------------------------------------------|
6------------------------------------------------------------------|

1------------------------------------------------------------------|
2--20-18-17-18-17-18-17----18-17-18-17-----------------------------|
3-----------------------19-------------19--------------------------|
4------------------------------------------------------------------|
5------------------------------------------------------------------|
6------------------------------------------------------------------|

1------------------------------------------------------------------|
2--20-18-17-18-17-18-17----18-17-18-17-----------------------------|
3-----------------------19-------------19--------------------------|
4------------------------------------------------------------------|
5------------------------------------------------------------------|
6------------------------------------------------------------------|

1------------------------------------------------------------------|
2--20-18-17-18-17-18-17----18-17-18-17-----------------------------|
3-----------------------19-------------19--------------------------|
4------------------------------------------------------------------|
5------------------------------------------------------------------|
6------------------------------------------------------------------|

1------------------------------------------------------------------|
2------------------------------------------------------------------|
3-----------------------------17-19-20-----------------------------|
4--------------------17-19-20--------------------------------------|
5-----------17-19-20-----------------------------------------------|
6--17-19-20--------------------------------------------------------|

1------------------------------------------------------------------|
2--20-18-17-18-17-18-17----18-17-18-17-----------------------------|
3-----------------------19-------------19--------------------------|
4------------------------------------------------------------------|
5------------------------------------------------------------------|
6------------------------------------------------------------------|

1------------------------------------------------------------------|
2--20-18-17-18-17-18-17----18-17-18-17-----------------------------|
3-----------------------19-------------19--------------------------|
4------------------------------------------------------------------|
5------------------------------------------------------------------|
6------------------------------------------------------------------|

1------------------------------------------------------------------|
2--20-18-17-18-17-18-17----18-17-18-17-----------------------------|
3-----------------------19-------------19--------------------------|
4------------------------------------------------------------------|
5------------------------------------------------------------------|
6------------------------------------------------------------------|

1------------------------------------------------------------------|
2------------------------------------------------------------------|
3-----------------------------17-19-17-----------------------------|
4--------------------17-19-20----------19--------------------------|
5-----------17-19-20-----------------------------------------------|
6--17-19-20--------------------------------------------------------|

Break Between Solo's: Play 4 times

1------------------------------------------------------------------|
2--2-4-5-2-4-5-2-4-5-2-4-5---4-5-7-4-5-7-4-5-7-4-5-7---------------|
3------------------------------------------------------------------|
4------------------------------------------------------------------|
5------------------------------------------------------------------|
6------------------------------------------------------------------|

1------------------------------------------------------------------|
2--5-7-9-5-7-9-5-7-9-5-7-9---7-9-10-7-9-10-7-9-10-7-9-10-----------|
3------------------------------------------------------------------|
4------------------------------------------------------------------|
5------------------------------------------------------------------|
6------------------------------------------------------------------|

Second Solo

1------------------------------------------------------------------|
2-----12-13-12-15--15-13-12--15-13-12--12--13-12-------------------|
3--14--------------------------------------------14----------------|
4------------------------------------------------------------------|
5------------------------------------------------------------------|
6------------------------------------------------------------------|

1--20-18-17--20-18-17--20-18-17--20-18-17--------------------------|
2------------------------------------------------------------------|
3------------------------------------------------------------------|
4------------------------------------------------------------------|
5------------------------------------------------------------------|
6------------------------------------------------------------------|

1--22-20-17--22-20-17--22-20-17--22-20-17--------------------------|
2------------------------------------------------------------------|
3------------------------------------------------------------------|
4------------------------------------------------------------------|
5------------------------------------------------------------------|
6------------------------------------------------------------------|

1--20-18-17--20-18-17--20-18-17--20-18-17--------------------------|
2-----------------------------------------20-20-20-20-20-20--20----|
3------------------------------------------------------------------|
4------------------------------------------------------------------|
5------------------------------------------------------------------|
6------------------------------------------------------------------|

1------------------------------------------------------------------|
2--20-18-17-18-17-15-18-17--20-18-17-18-17-15-17-15-13-15-13-12----|
3------------------------------------------------------------------|
4------------------------------------------------------------------|
5------------------------------------------------------------------|
6------------------------------------------------------------------|

1--------------------------------------------12-17-12--------------|
2--20-18-17-18-17-15-17-15-13-15-13-12----13----------13-----------|
3--------------------------------------14---------------14---------|
4------------------------------------------------------------------|
5------------------------------------------------------------------|
6------------------------------------------------------------------|

1-------------9-12-9---------9-12--17-19--12-9---------------------|
2----------10--------10---10-------------------10------------------|
3--------9--------------9-------------------------9----------------|
4-----11--------------------------------------------11-------------|
5--12--------------------------------------------------12----------|
6------------------------------------------------------------------|

Break Between Solo's: Play 4 times

1------------------------------------------------------------------|
2--2-4-5-2-4-5-2-4-5-2-4-5---4-5-7-4-5-7-4-5-7-4-5-7---------------|
3------------------------------------------------------------------|
4------------------------------------------------------------------|
5------------------------------------------------------------------|
6------------------------------------------------------------------|

1------------------------------------------------------------------|
2--5-7-9-5-7-9-5-7-9-5-7-9---7-9-10-7-9-10-7-9-10-7-9-10-----------|
3------------------------------------------------------------------|
4------------------------------------------------------------------|
5------------------------------------------------------------------|
6------------------------------------------------------------------|

Ending: Play 3 times
                End on this chord
1------------------------------------------------------------------|
2------------------------------------------------------------------|
3--9-7-------------------------------------------------------------|
4--9-7-10-9-7-5--------7-------------------------------------------|
5--7-5-10-9-7-5--------7-------------------------------------------|
6------8--7-5-3--------5-------------------------------------------|


Website: www.dannygrawbarger.com
Добавлено: 13.06.2013
Другие материалы по этой песне:
  • Аккорды и текст

Страница создана 13.06.2013
http://primanota.ru/danny-grawbarger/apollo-opus-chords.htm
Привет, Гость.
Предлагаем пройти революционный курс по гитаре.
Подарок от PrimaNota.Ru, забирай!