PrimaNota.ru - самый крупный в мире бесплатный архив песенных текстов, аккордов, табулатур и нот


Danny Gatton - Funky Mama - таба, видео

Регистрация Запомнить меня
Войти через:  Facebook Google Twitter Vk Yandex Mail.ru

Danny Gatton - Funky Mama - таба, видео

Печатать
Просмотров: 174
Funky Mama (Live) Danny Gatton

This is the first part of this live version

http://www.youtube.com/watch?v=rUpP7CnW4yA

I know that it's not totally accurate but this could be the begining of a better one ;-) 
another person would done !!
See you
Marcos Farhat
http://farhatguitar.com/


E |---|-----------------|-----------------------|
B |---|-------------5---|-3----------------5----|
G |---|-------------5---|-3h4--------------5----|
D |---|-----------------|-----------------------|
A |---|-----------------|-----------------------|
E |-3-|-3-3--3-3--3-3-3-|-3----3-3--3-3--3-3-3--|

E |--------------------|-----------------------|
B |----------------5---|-3---------------------|
G |----------------5---|-3h4-------------------|
D |--------------------|-----------------------|
A |--------------------|-----------------------|
E |-3--3-3--3-3--3-3-3-|-3----3-3--3-3--3-3-3--|


E |--------------------|-----------------------|
B |-8-------------10---|-8----------------10---|
G |-9-------------10---|-8h9--------------10---|
D |--------------------|-----------------------|
A |--------------------|-----------------------|
E |-8--8-8--8-8--8-8-8-|-8---8-8--8-8--8-8-----|

E |----------------------|-----|------------------|
B |-3----------------5---|-3---|-------------3----|
G |-3h4--------------5---|-3h4-|-------------4----|
D |----------------------|-----|------------------|
A |----------------------|-----|------------------|
E |-3----3-3--3-3--3-3-3-|-3---|-3-3--3-3--3-3-3--|

E |-----------------------------|-----------------------|
B |-10-------------------12-----|-8----------------10---|
G |-10h11----------------12-----|-8h9--------------10---|
D |-----------------------------|-----------------------|
A |-----------------------------|-----------------------|
E |-10--10-10--10-10--10-10--10-|-8--8-8--8-8--8---8----|

E |----------------------------------------------------|
B |-3------------------5----3--------------------------|
G |-3h4----------------5----3h4--------5b7r5p3 --------|
D |-------------------------------5------------5-3--5--|
A |----------------------------------------------------|
E |-3------3-3--3-3--3-3-3--3—-3x---3x-----------------|

E |--------------------------------------------------|
B |-----------------5----3---------------------------|
G |-----------------5----3h4----3-5b7r5p3 -----------|
D |---------------------------5------------5-3--5----|
A |--------------------------------------------------|
E |-----3-3--3-3--3-3-3--3—-3x-----------------------|

E |---------------------------/3---------------------|
B |-----------------5----3---------------------------|
G |-----------------5----3h4------5b7r5p3 -----------|
D |----------------------------------------5-3-------|
A |--------------------------------------------------|
E |-----3-3--3-3--3-3-3--3—-3x-----------------------|


E |-----------------3h5--3---------------------------|
B |-----------------6----5---------------------------|
G |-------------------------------5b7r5p3 -----------|
D |---------------------------5------------5-3-------|
A |-----3-3--3-3--3-3-3--3---------------------------|
E |-----------------------—--------------------------|

E |--------------------|-----|-----------------|
B |----------------5---|-3---|-------------5---|
G |----------------5---|-3h4-|-------------5---|
D |--------------------|-----|-----------------|
A |--------------------|-----|-----------------|
E |----3-3--3-3--3-3-3-|-3---|-3-3--3-3--3-3---|


E |--------------------------------------------3--3-5—-3-|
B |--15----14--13------------------------------3--5-5--3-|
G |--13----12--11----5b7r5p3--5-3--------------4--5-5--4-|
D |--14----13--12-----------------5-3-5p4p3--------------|
A |--14----13--12---------------------------5------------|
E |------------------------------------------------------|
X9

E |-----------------------—------------------|
B |-13b15-pb15r13p11-------------------------|
G |------------------12-10-12---—------------|
D |-----------------------—------------------|
A |-----------------------—------------------|
E |-----------------------—------------------|

E |----------------------12-----|-10-------13/15----10----------------|
B |----------------------13-----|-11h12--------------------12/13------|
G |-----------------------------|-------------------------------------|
D |-----------------------------|-------------------------------------|
A |-10--10-10--10-10--10-10--10-|-10----10-10----10-10--10-10----10---|
E |-----------------------------|-------------------------------------|

E |---------|
B |-11h12---|
G |-12------|
D |---------|
A |-10------|
E |---------|
Добавлено: 05.03.2012
Другие материалы по этой песне:
  • Аккорды и текст

Страница создана 05.03.2012
http://primanota.ru/danny-gatton/funky-mama-chords.htm
Привет, Гость.
Предлагаем пройти революционный курс по гитаре.
Подарок от PrimaNota.Ru, забирай!