PrimaNota.ru - самый крупный в мире бесплатный архив песенных текстов, аккордов, табулатур и нот


Danny Elfman - Pee Wees Big Adventure - таба, видео

Регистрация Запомнить меня
Войти через:  Facebook Google Twitter Vk Yandex Mail.ru

Danny Elfman - Pee Wees Big Adventure - таба, видео

Печатать
Просмотров: 178
DANNY ELFMAN
PEE WEE'S BIG ADVENTURE


TABBED BY STEPHEN CONSTANTINE (STEVECONST@HOTMAIL.COM)
THIS TAB IS ALL MY OWN WORK


Absolutely brilliant piece of music. Completely manic.

I've just worked out the basic melody. Perhaps one day
i'll fatten it out with some root notes and make it more
fingerstyle-ish.

Oh well, whatever - enjoy!


PART 1:

-------------11--------------------------
----10-12-13----13-12-10-----------------
-10--------------------------9-----------
-----------------------------------------
---------------------------8---8---8---8-
-------------------------8---8---8---8---

----------12-13-10-12-------------------
----10-13-------------13----------------
-10-------------------------------------
----------------------------------------
----------------------------------------
----------------------------------------

-13-12-12-13-12-11-11-12-11-10-10-11-10-9-9-8-7-
------------------------------------------------
------------------------------------------------
------------------------------------------------
------------------------------------------------
------------------------------------------------

-5h6h7-5h6h7-8-7-7-8-7-6-6-7-6-5-5-6-5-4-4-3-1-
-----------------------------------------------
-----------------------------------------------
-----------------------------------------------
-----------------------------------------------
-----------------------------------------------

-----------12--13-12-12-13-12-13-13-12--
-1-1-5-6-7------------------------------
----------------------------------------
----------------------------------------
----------------------------------------
----------------------------------------

x2
----------12-13-10-12-------------------
----10-13-------------13----------------
-10-------------------------------------
----------------------------------------
----------------------------------------
----------------------------------------


-------------------13-13-12-12-------------
-13-13-15-15-13-13-------------15-15-13-13-
-------------------------------------------
-------------------------------------------
-------------------------------------------
-------------------------------------------

-13-13-12-12-------------------------------
-------------15-15-13-13-15-15-13-13-15-15-
-------------------------------------------
-------------------------------------------
-------------------------------------------
-------------------------------------------

----------------------------------------
-13-13-15-15-13-13-15-15-15p14p13-------
----------------------------------14----
----------------------------------------
----------------------------------------
----------------------------------------

----------------------------------------
-15-15-15p14p13-------------------------
----------------13----------------------
----------------------------------------
----------------------------------------
----------------------------------------

-12-11-11-12-11-10-9-8--9-8-7-6---------
----------------------------------------
----------------------------------------
----------------------------------------
----------------------------------------
----------------------------------------

-9-8-8-9-8-7-7-8-9-8-8-9-8-----12-11-10-9-
----------------------------9-------------
------------------------------------------
------------------------------------------
------------------------------------------
------------------------------------------


Will work on the second movement next..'The Breakfast Machine'.

     
Добавлено: 12.11.2013
Другие материалы по этой песне:
  • Аккорды и текст

Страница создана 12.11.2013
http://primanota.ru/danny-elfman/pee-wees-big-adventure-chords.htm
Привет, Гость.
Предлагаем пройти революционный курс по гитаре.
Подарок от PrimaNota.Ru, забирай!