PrimaNota.ru - самый крупный в мире бесплатный архив песенных текстов, аккордов, табулатур и нот


Danny Elfman - Kingdom Finale - таба, видео

Регистрация Запомнить меня
Войти через:  Facebook Google Twitter Vk Yandex Mail.ru

Danny Elfman - Kingdom Finale - таба, видео

Печатать
Просмотров: 199
This if the Kingdom Finale Introduction.  It goes about 2 minutes into the song.  This 
my first tab, enjoy!!

()= PLay very lightly
~ = Let ring for 1/4 a count
h = Hammer on
p = Pull off
/ = Slide

E|---------------------------------------------------------------------|
B|---------------------------------------------------------------------|
G|-----9~ ~ ~ ~---------9------7~ ~ ~ ~ ~ ~ ~ ~------------------------|
D|--7---------------7------7-------------------------------------------|
A|---------------------------------------------------------------------|
E|---------------------------------------------------------------------|

E|---------------------------------------------------------------------|
B|---------------------------------------------------------------------|
G|-----9~ ~ ~ ~---------9------7--7---------6--------------------------|
D|--7---------------7------7-----------7-------------------------------|Repeat 1x
A|---------------------------------------------------------------------|
E|---------------------------------------------------------------------|

E|---------------------------------------------------------------------|
B|---------------------------------------------------------------------|
G|--------7~ ~/9------9~ ~ ~ ~---------7-------7--------6------6-------|
D|--7h9-----------7------------------------7-------7--------7------7---|
A|---------------------------------------------------------------------|
E|---------------------------------------------------------------------|

E|------12~ ~ ~ ~---------12----------10---10----------9~ ~ ~ ~--------|
B|--9----------------9-----------9---------------9---------------------|
G|---------------------------------------------------------------------|
D|---------------------------------------------------------------------|
A|---------------------------------------------------------------------|
E|---------------------------------------------------------------------|

E|------12~ ~ ~ ~---------12----------10---10---------9h10p9-----------|
B|--9----------------9-----------9---------------9---------------------|
G|---------------------------------------------------------------------|
D|---------------------------------------------------------------------|
A|---------------------------------------------------------------------|
E|---------------------------------------------------------------------|

E|------12~ ~ ~ ~---------12----------10---10---------9----------------|
B|--9----------------9-----------9---------------9-------9h11/13~ ~ ~ ~|
G|---------------------------------------------------------------------|
D|---------------------------------------------------------------------|
A|---------------------------------------------------------------------|
E|---------------------------------------------------------------------|

E|---------------------------------------------------------------------|
B|---------9-----12--------12--------10-------10-------9-----9---------|
G|--9h11--------------9---------9---------9--------9------9-----9------|
D|---------------------------------------------------------------------|
A|---------------------------------------------------------------------|
E|---------------------------------------------------------------------|

E|---------------------------------------------------------------------|
B|-----------------------------12~ ~ ~ ~-------12-----10---10-----9~ ~ |
G|--(11/13)~ ~ ~ ~ ~ ~ ~ ~--9--------------9-------9-----------9-------|
D|--(9/11)~ ~ ~ ~ ~ ~ ~ ~----------------------------------------------|
A|---------------------------------------------------------------------|
E|---------------------------------------------------------------------|

E|---------------------------------------------------------------------|
B|--9h10p9~ ~-------12~ ~ ~ ~-------12--------10--10--------9---9h10p9-|
G|--------------9---------------9--------9-------------9---------------|
D|---------------------------------------------------------------------|
A|---------------------------------------------------------------------|
E|---------------------------------------------------------------------|

E|---------------------------------------------------------------------|
B|--12------12--------10--------10--------9---------9------------------|
G|-------9-------9----------9--------9---------9---------9/11----------|
D|---------------------------------------------------------------------|
A|---------------------------------------------------------------------|
E|---------------------------------------------------------------------|

E|---------------------------------------------------------------------|
B|--12------12--------10--------10--------9---------9---------9h10/12--|
G|-------9-------9----------9--------9---------9---------9-------------|
D|---------------------------------------------------------------------|
A|---------------------------------------------------------------------|
E|---------------------------------------------------------------------|

2:00 mark
Добавлено: 26.03.2012
Вам также может быть интересно:
Другие материалы по этой песне:
  • Аккорды и текст

Страница создана 26.03.2012
http://primanota.ru/danny-elfman/kingdom-finale-chords.htm
Привет, Гость.
Предлагаем пройти революционный курс по гитаре.
Подарок от PrimaNota.Ru, забирай!