PrimaNota.ru - самый крупный в мире бесплатный архив песенных текстов, аккордов, табулатур и нот


Danny Elfman - Batman Theme - таба, видео

Регистрация Запомнить меня
Войти через:  Facebook Google Twitter Vk Yandex Mail.ru

Danny Elfman - Batman Theme - таба, видео

Печатать
Просмотров: 197
Уроки эстрадного вокала в Санкт-Петербурге
Danny Elfman's theme from the 1989 film, "Batman"

Both Guitars
Repeat x2
e|----------------------------------------------------------------|
B|----------------------------------------------------------------|
G|----------------------------------------------------------------|
D|----------------------------------------------------------------|
A|2-------3-2-----------------------------------------------------|
E|0---2-3---------------------------------------------------------|

Rhythm Guitar (Repeat until desired)
e|----------------------------------------------------------------|
B|----------------------------------------------------------------|
G|----------------------------------------------------------------|
D|----------------------------------------------------------------|
A|222-222-222-222-------------------------------------------------|
E|000-000-000-000-------------------------------------------------|

Lead Guitar
e|--------3~~~-2----------2~~~-4-5--------------------------------|
B|-0h2h3--3~~~-3---0h2h3--3~~~-5-5--------------------------------|
G|----------------------------------------------------------------|
D|----------------------------------------------------------------|
A|----------------------------------------------------------------|
E|----------------------------------------------------------------|
Добавлено: 07.07.2013
Другие материалы по этой песне:

Страница создана 04.05.2012
http://primanota.ru/danny-elfman/batman-theme-chords.htm
Привет, Гость.
Предлагаем пройти революционный курс по гитаре.
Подарок от PrimaNota.Ru, забирай!