PrimaNota.ru - самый крупный в мире бесплатный архив песенных текстов, аккордов, табулатур и нот


Danko Jones - You Wear Me Down - таба, видео

Регистрация Запомнить меня
Войти через:  Facebook Google Twitter Vk Yandex Mail.ru

Danko Jones - You Wear Me Down - таба, видео

Печатать
Просмотров: 73
Danko Jones - You Wear Me Down
Rock And Roll Is Black And Blue

tab by bürmi

hb = half bend
fb = full bend
/   = slide to the note
p   = Pull off
~   = vibrato

note: some parts have to be repeated
      half step down tuning
Intro

e|--------------------------------------------------------|
A|--------------------------------------------------------|
D|--------------------------------------------------------|    x4
G|--------------------------------------------------------|
H|-----------2--5hb--2--5hb--2--5--2--0-------------------|
E|-----0--4--------------------------------4--5--4--0-----|

Fill 1
               strumming
e|----------------------|
A|----------------------|
D|-----------------/7---|
G|-----------------/7---|
H|-----------------/5---|
E|----------------------|

Bridge

e|-------------------------------------------------------------------------|
A|-------------------------------------------------------------------------|
D|--------------13--11--13--11---------------------------------------------|
G|-----2-------------------------14--12--14--12--12P--11--12P--11----------|
H|-----2----------------------------------------------------------------14-|
E|-----0-------------------------------------------------------------------|

Chorus

          let ring
e|--------------------|
A|--------------------|
D|-----------2--------|
G|------2----2--------|
H|------2----0--------|
E|------0-------------|

Fill 2

e|----------------------------------------|
A|----------------------------------------|
D|---------------------------------9------|
G|-------------4hb------------4hb--9------|      x2
H|-----4--5--7-------4--5--7-------7------|
E|----------------------------------------|

Solo
          strumming
e|-----------------------|---------------------------------------|
A|-----7--------------9--|---------------------------------------|
D|-----7--------------9--|---12--11--9---------------------------|
G|-----7--------------9--|---------------12--11--9---------------|
H|-----------------------|---------------------------12--11--7~--|
E|-----------------------|---------------------------------------|

e|------------------------------------------------|
A|------------------------------------------------|
D|----------------------12hb----------------------|
G|-----/14--/14--/14----------/14--/14--/14--12fb-|
H|------------------------------------------------|
E|------------------------------------------------|

fill 3

            strumming
e|--------------------|
A|--------------------|
D|------/7---7---7----|
G|------/7---6---4----|
H|------/5---5---5----|
E|--------------------|

e|--------------------------------------------------|
A|--------------------------------------------------|
D|--------------------------------------------------|
G|-----/5--4---------4------------------------------|
H|------------7--5-----7--5--4--7--5--4-----5--4----|
E|---------------------------------------7----------|

  -----------------------------|
  -----------------------------|
  -----------------------------|
  -----------------------------|
  -----------------------------|
  --7--5--4--7--5--4--7--5--4--|

enjoy
Добавлено: 08.07.2013
Другие материалы по этой песне:
  • Аккорды и текст

Страница создана 08.07.2013
http://primanota.ru/danko-jones/you-wear-me-down-chords.htm
Привет, Гость.
Предлагаем пройти революционный курс по гитаре.
Подарок от PrimaNota.Ru, забирай!