PrimaNota.ru - самый крупный в мире бесплатный архив песенных текстов, аккордов, табулатур и нот


Danko Jones - Suicide Woman - текст песни, таба, видео

Регистрация Запомнить меня
Войти через:  Facebook Google Twitter Vk Yandex Mail.ru

Danko Jones - Suicide Woman - текст песни, таба, видео

Печатать
Просмотров: 188
Danko Jones - Suicide Woman

tabbed by habyridhelix88

Standart Tuning


E|----------------------------|
H|----------------------------|
G|----------------------------|
D|----6------9-11-9-0-9—-6----|
A|----4------7—9-—7-2—7—-4----|
E|----------------------------|

E|--------------------------|
H|--------------------------|
G|--------------------------|
D|-------------------4----6-|
A|----4----2---------2----4-|
E|----2----0----------------|

E|-------------------|
H|-------------------|
G|-------------------|
D|----4-4-4-4-4-4----|
A|----2-2-2-2-2-2----|
E|-------------------|


E|--------------------------------------------------------------------|
H|-----------------------------------------------------------------5--|
G|------------------------------------------------------------4—6-----|
D|----6-6-6-6-6-6-6-6-6-6-6-6-6-6-6-6-6-6-6-6-6-6-6-6----4--6---------|
A|----4.4.4.4.4.4.4.4.4.4.4.4.4.4.4.4.4.4.4.4.4.4.4.4-----------------|
E|--------------------------------------------------------------------|


E|---------------------------------------------------------|
H|-------------5----------5-----------5/7-7p-7p-7p-7p------|
G|---------4—6--------4-6---------4-6----------------------|
D|----6-6--------6-6---------6-6---------------------------|
A|----4-4--------4-4---------4-4---------------------------|
E|---------------------------------------------------------|


Solo :

E|------------------------------------------------------|
H|12p----12p—12----------------------11-11-11-9---------|
G|----------------11p—11---9---------11-11-11-9---------|
D|------------------------------------------------11--9-|
A|------------------------------------------------------|
E|------------------------------------------------------|

E|--------------------|
H|--------------------|
G|--------------------|
D|--------------------|
A|----7—9—7—2—7—4~~~~-|
E|--------------------|

E|----------------------------------14p—14—12---------|
H|----------------------------12—14-----------14--14--|
G|----------9-9-9----9---11---------------------------|
D|----9—11--------11----------------------------------|
A|----------------------------------------------------|
E|----------------------------------------------------|

you have to find out by yourself how long you have to hold the notes
Добавлено: 23.06.2012
Другие материалы по этой песне:

Страница создана 29.05.2012
http://primanota.ru/danko-jones/suicide-woman-chords.htm
Привет, Гость.
Предлагаем пройти революционный курс по гитаре.
Подарок от PrimaNota.Ru, забирай!