PrimaNota.ru - самый крупный в мире бесплатный архив песенных текстов, аккордов, табулатур и нот


Danko Jones - Play The Blues - текст песни, таба, видео

Регистрация Запомнить меня
Войти через:  Facebook Google Twitter Vk Yandex Mail.ru

Danko Jones - Play The Blues - текст песни, таба, видео

Печатать
Просмотров: 154
Уроки эстрадного вокала в Санкт-Петербурге
-------------------------------------------------------------------------------
                             Danko Jones- Play the blues
-------------------------------------------------------------------------------

Song: Play the blues.
Artist: Danko jones.
Album: Born a lion.
Tabbed by: elger
Email: menselgerjeniet@hotmail.com

Tuning: standard

Intro: First part of intro is a slide guitar didn't tab that out, here's whats 
coming next; Play this 4 times:
e|---------------------------------------------------------------------------|
B|-6---6---------------------------------------------------------------------|
G|--777-777-5-7--------------------------------------------------------------|
D|--777-777-5-7--------------------------------------------------------------|
A|--555-555-3-5--------------------------------------------------------------|
E|---------------------------------------------------------------------------|


Verse:
e|---------------------------------------------------------------------------|
B|------13~~-------13~~-------13~~-------------------------------------------|
G|-7~~--10~~--7~~--10~~--7~~--10~~--7~~--------------------------------------|
D|-7~~--10~~--7~~--10~~--7~~--10~~--7~~--------------------------------------|
A|-5~~--------5~~--------5~~--------5~~--------------------------------------|
E|---------------------------------------------------------------------------|

e|---------------------------------------------------------------------------|
B|-6---6---------------------------------------------------------------------|
G|--777-777-5-7--------------------------------------------------------------|
D|--777-777-5-7--------------------------------------------------------------|
A|--555-555-3-5--------------------------------------------------------------|
E|---------------------------------------------------------------------------|


Chorus:
e|---------------------------------------------------------------------------|
B|-----------------------------------6b-----------6-8-8b8-6------------------|
G|----5b5-----7b7--------5h77----5h77--7------5h77---------7-----------------|
D|-3~-------5~-------5h77----5h77---------5h77-------------------------------|
A|-3~-------5~---------------------------------------------------------------|
E|-1~-------3~---------------------------------------------------------------|

e|---------------------------------------------------------------------------|
B|-------------------6---6---------6---6-------------------------------------|
G|----5b5------7b7----777-777-5-7---777-777-5-7---7\-------------------------|
D|-3~-------5~--------777-777-5-7---777-777-5-7---7\-------------------------|
A|-3~-------5~--------555-555-3-5---555-555-3-5---5\-------------------------|
E|-1~-------3~---------------------------------------------------------------|

2nd verse: no guitar.
2nd Chorus:
e|---------------------------------------------------------------------------|
B|-----------------------------------6b-----------6-8-8b8-6------------------|
G|----5b5-----7b7--------5h77----5h77--7------5h77---------7-----------------|
D|-3~-------5~-------5h77----5h77---------5h77-------------------------------|
A|-3~-------5~---------------------------------------------------------------|
E|-1~-------3~---------------------------------------------------------------|

e|---------------------------------------------------------------------------|
B|-------------------6---6--------6-----------6---6--------6-----------------|
G|----5b5-----7b7-----777-777-5-7--777-5/7-----777-777-5-7--777-5/7----------|
D|-3~-------5~--------777-777-5-7--777-5/7-----777-777-5-7--777-5/7----------|
A|-3~-------5~--------555-555-3-5--555-3/5-----555-555-3-5--555-3/5----------|
E|-1~-------3~---------------------------------------------------------------|


Solo:
e|-------5-5-5-5-5-----5-5-5-5-----------------------------------------------|
B|-------6-6-6-6-6b----6-6-6-6b------12b-12--12b-12--------------------------|
G|----5h7----------7-77--------7-77—-12b-12--12b-12—12p10-12--10-------------|
D|-5h7------------------------------------------------------12--121212-10----|
A|-----------------------------------------------------------------------1212|
E|---------------------------------------------------------------------------|

e|----------------131313---------13-----------------131313---------13--------|
B|--------12/13-13-------12/13-13-----------12/13-13-------12/13-13----------|
G|---------------------------------10b-------------------------------10b-----|
D|------------------------------------12-12---------------------------- 12-12|
A|-121212--------------------------------------------------------------------|
E|---------------------------------------------------------------------------|

e|---------------------------------------------------------------------------|
B|-12b-12-10-12p10-----------------------------------------------------------|
G|-12b-12-10-12p10---------------------10b-----------------------------------|
D|----------------12-12\10-1010-1010/12---12---------------------------------|
A|---------------------------------------------------------------------------|
E|---------------------------------------------------------------------------|

e|---------------------------------------------------------------------------| 
B|-6---6--------6------------------------------------------------------------| 
G|--777-777-5-7--777-5-7-----------------------------------------------------| 
D|--777-777-5-7--777-5-7-----------------------------------------------------| 
A|--555-555-3-5--555-3-5-----------------------------------------------------| 
E|---------------------------------------------------------------------------|


3th Verse:
e|---------------------------------------------------------------------------| 
B|---------------------------------------------------------------------------| 
G|-7~~--10~~--7~~--10~~--7~~--10~~--7~~--------------------------------------| 
D|-7~~--10~~--7~~--10~~--7~~--10~~--7~~--------------------------------------| 
A|-5~~---8~~--5~~---8~~--5~~---8~~--5~~--------------------------------------| 
E|---------------------------------------------------------------------------|

e|---------------------------------------------------------------------------|
B|-6---6---------------------------------------------------------------------|
G|--777-777-5-7--------------------------------------------------------------|
D|--777-777-5-7--------------------------------------------------------------|
A|--555-555-3-5--------------------------------------------------------------|
E|---------------------------------------------------------------------------|


3th Chorus:
e|---------------------------------------------------------------------------|
B|-----------------------------------6b-----------6-8-8b8-6------------------|
G|----5b5-----7b7--------5h77----5h77--7------5h77---------7-----------------|
D|-3~-------5~-------5h77----5h77---------5h77-------------------------------|
A|-3~-------5~---------------------------------------------------------------|
E|-1~-------3~---------------------------------------------------------------|

e|---------------------------------------------------------------------------| 
B|---------------------------------------------------------------------------| 
G|----5b5--------------------------------------------------------------------| 
D|-3~------5~~---------------------------------------------------------------| 
A|-3~------5~~---------------------------------------------------------------| 
E|-1~------3~~---------------------------------------------------------------|


Outro: 
Play 7 times:                8th time play:
e|--------------------------|------------------------------------------------|
B|-6---6--------------------|-6---6------------------------------------------|
G|--777-777-5-7-------------|--777-7\----------------------------------------|
D|--777-777-5-7-------------|--777-7\----------------------------------------|
A|--555-555-3-5-------------|--555-5\----------------------------------------|
E|--------------------------|------------------------------------------------|


| /  slide up
| \  slide down
| h  hammer-on
| p  pull-off
| ~  vibrato
| b  Bend up
| x  Mute note
===============================================================================

Добавлено: 09.07.2012
Другие материалы по этой песне:

Страница создана 25.05.2012
http://primanota.ru/danko-jones/play-the-blues-chords.htm
Привет, Гость.
Предлагаем пройти революционный курс по гитаре.
Подарок от PrimaNota.Ru, забирай!