PrimaNota.ru - самый крупный в мире бесплатный архив песенных текстов, аккордов, табулатур и нот


Danko Jones - My Love Is Bold - текст песни, таба, видео

Регистрация Запомнить меня
Войти через:  Facebook Google Twitter Vk Yandex Mail.ru

Danko Jones - My Love Is Bold - текст песни, таба, видео

Печатать
Просмотров: 100
Danko Jones-My Love Is Bold
tabbed by Matt Jones
slant_of_light@hotmail.com

INTRO

the bass just plays an F# forever while he does the little guitar lick...i 
havent figured the lick yet, if anyone wants to help out it'll be cool

(bass)
E|-2-2-2-2-2-2-2-2-2-2-....|

VERSE *important* with all of the verse riffs, play twice, then three times 
faster*

   F#      G#
D|-4-4-4-4/6-|
A|-4-4-4-4/6-|
E|-2-2-2-2/4-|

riff
All the girls
riff
Think ...
riff
But they...
riff
repeat like this

then it changes to

   F#      G#
D|-4-4-4-4----|
A|-4-4-4-4----|
E|-2-2-2-2/4~-|
pretty much the same thing, just let the G# ring out

riff
I'm gonna say it
riff
right now
etc...

pre-chorus(the hot woman, hot night, part)

   F#     G#     F#     G#    F#     G#  F# G# F# G#
D|-4-4-4-4/6-----4-4-4-4/6----4-4-4-4/6--4-4/6-4-4/6-|
A|-4-4-4-4/6-----4-4-4-4/6----4-4-4-4/6--4-4/6-4-4/6-|
E|-2-2-2-2/4-----2-2-2-2/4----2-2-2-2/4--2-2/4-2-2/4-|
   B      C#     B      C#    F#     G#  F# G# F# G#
G|-4-4-4-4/6-----4-4-4-4/6---------------------------|
D|-4-4-4-4/6-----4-4-4-4/6----4-4-4-4/6--4-4/6-4-4/6-|
A|-2-2-2-2/4-----2-2-2-2/4----4-4-4-4/6--4-4/6-4-4/6-|
E|----------------------------2-2-2-2/4--2-2/4-2-2/4-|

CHORUS
   D E               D A
e|---0-0-0-0-0-0-0-0---0-0-0-0-0-0-0-0-|
B|---0-0-0-0-0-0-0-0---2-2-2-2-2-2-2-2-|
G|-7-1-1-1-1-1-1-1-1-7-2-2-2-2-2-2-2-2-|
D|-7-2-2-2-2-2-2-2-2-7-2-2-2-2-2-2-2-2-|
A|-5-2-2-2-2-2-2-2-2-5-0-0-0-0-0-0-0-0-|
E|---0-0-0-0-0-0-0-0-------------------|

just before going back to the verse play the D E D A progression quicker 
than before, end on D and just drive it to a full stop before going back to 
the verse

solo section
(the tab means tens and twelves not one, open, one two...etc...)

   D                                             G
G|-----------------------------------------------12~-|
D|-12-x-x-12-x-x-12-x-x-12-x-x-------------10-12-12~-|
A|-12-x-x-12-x-x-12-x-x-12-x-x-------10-12-------10~-|
E|-10-x-x-10-x-x-10-x-x-10-x-x-10-12-----------------|

repeat all previous parts in the appropriate places

OUTRO

just play the chorus chords on an acoustic with a slighty different rythem

CHORDS
     EADGBe
F# - 244xxx
G# - 466xxx
B  - x244xx
C# - x466xx
D  - x577xx
E  - 022100
A  - x02220

Solo chords
     E A D G B E
D - 101212 x x x
G -  x101212 x x

OUTRO CHORDS
    EADGBE
D - xx0232
E - 022100
A - x02220

thats it, any questions comments, suggestions, etc send to me at the above 
address
if any can figure out the new tea party tune Walking Wounded, send it my 
way...thanks

     
Добавлено: 31.10.2013
Другие материалы по этой песне:
  • Аккорды и текст

Страница создана 26.02.2012
http://primanota.ru/danko-jones/my-love-is-bold-chords.htm
Привет, Гость.
Предлагаем пройти революционный курс по гитаре.
Подарок от PrimaNota.Ru, забирай!