PrimaNota.ru - самый крупный в мире бесплатный архив песенных текстов, аккордов, табулатур и нот


Danko Jones - Invisible - текст песни, таба, видео

Регистрация Запомнить меня
Войти через:  Facebook Google Twitter Vk Yandex Mail.ru

Danko Jones - Invisible - текст песни, таба, видео

Печатать
Просмотров: 114
-------------------------------------------------------------------------------
                             Invisible – Danko Jones
-------------------------------------------------------------------------------
Tabbed by: Mark Schouten        
Email: mark9011@hotmail.com

Tuning: EADGBE (standard E)

You'll have to figure out the strumming by yourself, but it is very easy.

Intro
e|-----------------------------|
B|-----------------------------|
G|-----------------------------|
D|--4-6-2-4-1-2-1-2------------|
A|------------------2-2-3-3-4~-|
E|-----------------------------|

2nd part
e|---------------------------------- :|--|
B|---------------------------------- :|--|
G|---------------------------------- :|2x|
D|-9--11-11-11-11---7--11-11-11-11-- :|--|
A|-9--11-11-11-11---7--11-11-11-11-- :|--|
E|-7--9--9--9--9----9--9--9--9--9--- :|--|

3rd part 
e|---------------------------------:|--|     ---------------------------------:|
B|---------------------------------:|--|       ---------------------------------:|
G|----pm-pm-pm-pm------pm-pm-pm-pm-:|2x|     ---------------------------------:|
D|-9--11-11-11-11---7--11-11-11-11-:|--|Then -13-/-6-6-6-6--14-/-7-7-7-7------:|
A|-9--11-11-11-11---7--11-11-11-11-:|--|     -13-/-6-6-6-6--14-/-7-7-7-7------:|
E|-7--9--9--9--9----9--9--9--9--9--:|--|     -11-/-4-4-4-4--12-/-5-5-5-5------:|

4th part
e|-------------------------------------------------------:|
B|-------------------------------------------------------:|
G|-------------------------------------------------------:|
D|-9--11-11-11-11-11---6-\-7~---7-\-9~--9--11-11-11-11---:|
A|-9--11-11-11-11-11---6-\-7~---7-\-9~--9--11-11-11-11---:|
E|-7--9--9--9--9--9----4-\-5~---5-\-7~--7--9--9--9--9----:|

5th part
e|---------------------------------:|--|     ---------------------------------:|
B|---------------------------------:|--|     ---------------------------------:|
G|----pm-pm-pm-pm------pm-pm-pm-pm-:|2x|     ---------------------------------:|
D|-9--11-11-11-11---7--11-11-11-11-:|--|Then -13-/-6-6-6-6--14-/-7-7-7-7------:|
A|-9--11-11-11-11---7--11-11-11-11-:|--|     -13-/-6-6-6-6--14-/-7-7-7-7------:|
E|-7--9--9--9--9----9--9--9--9--9--:|--|     -11-/-4-4-4-4--12-/-5-5-5-5------:|

6th part
e|-------------------------------------------------------:|
B|-------------------------------------------------------:|
G|-------------------------------------------------------:|
D|-9--11-11-11-11-11---6-\-7~---7-\-9~--9--11-11-11-11---:|
A|-9--11-11-11-11-11---6-\-7~---7-\-9~--9--11-11-11-11---:|
E|-7--9--9--9--9--9----4-\-5~---5-\-7~--7--9--9--9--9----:|

Solo intro
e|----------------------------------|-----------------------------|--|
B|----------------------------------|-----------------------------|--|
G|----------------------------------|-----------------------------|2x|
D|-9--11-11-11-11---7--11-11-11-11--|--4-6-2-4-1-2-1-2------------|--|
A|-9--11-11-11-11---7--11-11-11-11--|------------------2-2-3-3-4~-|--|
E|-7--9--9--9--9----7--9--9--9--9---|-----------------------------|--|

Solo
e|---------------------------------------------------------------------------|
B|---------------------------------------12^hold-12-12-12-12-release-12^-----|
G|--11^hold-11-11-11-11-11-Release 11^-9---------------------------------11--|
D|---------------------------------------------------------------------------|
A|---------------------------------------------------------------------------|
E|---------------------------------------------------------------------------|

e|-------------------------------x---x---x-----------------------------------|
B|-------------------------------x---x---x-------12^hold-12-12-12-12-re^-----|
G|-11^hold----9-11^-9-11^-------11--11--11—11^-9-------------------------11--|
D|------------------------9-11~----------------------------------------------|
A|---------------------------------------------------------------------------|
E|---------------------------------------------------------------------------|

e|---------------------------------------------------------------------------|
B|---------------------------------------------------------------------------|
G|--11^hold---9-11^-9-11^----------------------------------------------------|
D|------------------------9-11~----------------------------------------------|
A|---------------------------------------------------------------------------|
E|---------------------------------------------------------------------------|

e|---------------------------------:|--|     -----------------------:|--|
B|---------------------------------:|--|     -----------------------:|--|
G|----pm-pm-pm-pm------pm-pm-pm-pm-:|4x|     -----------------------:|3x|
D|-9--11-11-11-11---7--11-11-11-11-:|--|Then -6-\-7~~---7-\-9-------:|--|
A|-9--11-11-11-11---7--11-11-11-11-:|--|     -6-\-7~~---7-\-9-------:|--|
E|-7--9--9--9--9----9--9--9--9--9--:|--|     -4-\-5~~---5-\-7-------:|--|

Outro
e|----------------------|
B|----------------------|
G|----------------------|
D|-9-11-11-11-11--7-/---|
A|-9-11-11-11-11--7-/---|
E|-7-9--9--9--9---9-/---|




| /  slide up
| \  slide down
| h  hammer-on
| p  pull-off
| ~  vibrato
| +  harmonic
| x  Mute note
===============================================================================


That's all, let me now if i made some mistakes, .. I think it sounds pretty good this way.
Добавлено: 26.06.2012
Другие материалы по этой песне:
  • Аккорды и текст

Страница создана 26.06.2012
http://primanota.ru/danko-jones/invisible-chords.htm
Привет, Гость.
Предлагаем пройти революционный курс по гитаре.
Подарок от PrimaNota.Ru, забирай!