PrimaNota.ru - самый крупный в мире бесплатный архив песенных текстов, аккордов, табулатур и нот


Danko Jones - Had Enough - таба, видео

Регистрация Запомнить меня
Войти через:  Facebook Google Twitter Vk Yandex Mail.ru

Danko Jones - Had Enough - таба, видео

Печатать
Просмотров: 152
"Danko Jones" - "Had Enough" from the "Below the Belt" record

Tabbed by Tilt_Mode
enjoy   

INTRO:
E|----------------------------------|
B|----------------------------------|
G|----------------------------------|
D|-------------------------------9--|
A|-----9-----10----9-----10------9--|
E|-7-7---7-7---77----7-7----7-7--7--|
PM . .   . .   . .   . .    . .

E|----------------------------------|
B|----------------------------------|
G|----------------------------------|
D|--------------------------12--7---|
A|-----9-----10----9--------12--7---|
E|-7-7---7-7---7-7---7-7-7--10--5---|
PM . .   . .   . .   . . .   
Verse:

E|------------------|
B|------------------|
G|------------------| the timeing isn't
D|-9------5------7-7| easy so listen to the song
A|-9(32x)-5(28x)-7-7|
E|-7------3------5-5|

   last time
E|------------------|
B|------------------|
G|------------------|
D|-9------5------7--|
A|-9(32x)-5(24x)-7--|
E|-7------3------5--|

Chorus:
E|-----------------------------|
B|-----------------------------|
G|---------------7-------------|
D|-9------5------7(16x)-7------|
A|-9(16x)-5(16x)-5------7(16x)-|
E|-7------3-------------5------|

Bridge:
E|---------------------------------------------------|
B|---------------------------------------------------|
G|//11(16x)-7-12-12-12-12-11-11-11-11-9-9-9-9-7-7-7-7| 
D|---------------------------------------------------|  
A|---------------------------------------------------|           \
E|---------------------------------------------------|            \
                                                                   \ Played
E|--------------------------------------------------------------|  /  twice
B|-----7-----------------------------------------9-9-9-9--------| /
G|-9-9---9-9-7-7-7-7-7-7-7-7-7-7-----------------9-9-9-9-7-7-7-7|/
D|-------------------------------7-7-7-7-9-9-9-9----------------|
A|--------------------------------------------------------------|
E|--------------------------------------------------------------|

sort of prechorus
E|------------------------------------------------------|
B|------------------------------------------------------|
G|-7------------7------------7--------------------------|
D|-7--9--7--9---7--9--7--9---7--9--7--9--x-x--5--2------|
A|-5--9--7--9---5--9--7--9---5--9--7--9--x-x--5--2------|
E|----7--5--7------7--5--7------7--5--7--x-x--3--0------|

leave a comment!
Добавлено: 24.07.2012
Другие материалы по этой песне:

Страница создана 29.05.2012
http://primanota.ru/danko-jones/had-enough-chords.htm
Привет, Гость.
Предлагаем пройти революционный курс по гитаре.
Подарок от PrimaNota.Ru, забирай!