PrimaNota.ru - самый крупный в мире бесплатный архив песенных текстов, аккордов, табулатур и нот


Danko Jones - Getting Intro Drugs - таба, видео

Регистрация Запомнить меня
Войти через:  Facebook Google Twitter Vk Yandex Mail.ru

Danko Jones - Getting Intro Drugs - таба, видео

Печатать
Просмотров: 29
-------------------------------------------------------------------------------
                             Getting into Drugs - Danko Jones
-------------------------------------------------------------------------------
Tabbed by:Wild.rover
E-mail:

Tuning: E standard

Intro/chorus

e|---------------------------------------------------------------------------|
B|---------------------------------------------------------------------------|
G|-5-2--5-5-2--5-5-2---------------------------------------------------------|
D|-5-2--5-5-2--5-5-2-5-7-----------------------------------------------------|
A|-3-0--3-3-0--3-3-0-5-7-----------------------------------------------------|
E|-------------------3-5-----------------------------------------------------|

Verse

e|---------------------------------------------------------------------------|
B|---------------------------------------------------------------------------|
G|------5-5------------------------------------------------------------------|
D|-7-7--5-5--5-5--7----------------------------------------------------------|
A|-7-7--3-3--5-5--7----------------------------------------------------------|
E|-5-5-------3-3--5----------------------------------------------------------|

Pre Chorus

e|---------------------------------------------------------------------------|
B|---------------------------------------------------------------------------|
G|---------------------------------------------------------------------------|
D|-2---5-5-5-2---2-----------------------------------------------------------|
A|-2---5-5-5-2---2-----------------------------------------------------------|
E|-0---3-3-3-0---0-----------------------------------------------------------|

Bridge 1

e|---------------------------------------------------------------------------|
B|---------------------------------------------------------------------------|
G|---------------------------------------------------------------------------|
D|---------------------------------------------------------------------------|
A|---------3-3-3-3-----------------------------------------------------------|
E|-5-5-5-5---------3-3-3-3-5-5-5-5-------------------------------------------|
   x x x x x x x x x x x x x x x x 

Bridge 2

e|---------------------------------------------------------------------------|
B|---------------------------------------------------------------------------|
G|---------5-5-5-5-----------------------------------------------------------|
D|-7-7-7-7-5-5-5-5-5-5-5-5-7-7-7-7-------------------------------------------|
A|-7-7-7-7-3-3-3-3-5-5-5-5-7-7-7-7-------------------------------------------|
E|-5-5-5-5---------3-3-3-3-5-5-5-5-------------------------------------------|



Song order:

Intro           x2
verse           x4
Pre chorus      x1
chorus          x4
verse           x4
pre chorus      x3
chorus          x4
bridge 1        x8
verse           x2
bridge 2        x4
Pre chorus      x4
Chorus          x1

Добавлено: 07.11.2015
Вам также может быть интересно:
Другие материалы по этой песне:
  • Аккорды и текст

Страница создана 07.11.2015
http://primanota.ru/danko-jones/getting-intro-drugs-chords.htm
Привет, Гость.
Предлагаем пройти революционный курс по гитаре.
Подарок от PrimaNota.Ru, забирай!