PrimaNota.ru - самый крупный в мире бесплатный архив песенных текстов, аккордов, табулатур и нот


Danko Jones - Full Of Regret - текст песни, таба, видео

Регистрация Запомнить меня
Войти через:  Facebook Google Twitter Vk Yandex Mail.ru

Danko Jones - Full Of Regret - текст песни, таба, видео

Печатать
Просмотров: 153
Artist: Danko Jones
Album: Below The Belt
Song: Full Of Regret
Tabbed By The Makdaddy Abbinash

b= Bend


Intro 1 x2

e---------------------------------------------|
B---------------------------------------------|
G---------------------------------------------|
D--9--9--11-----------------------------------|
A--9--9--11-----------------------------------|
E--7--7--9------------------------------------|

e----------------------------------------------|
B----------------------------------------------|
G--11-9-11-9---11-9-11-9-11-9---11-9-11-9-11-9-|
D----------------------------------------------|
A----------------------------------------------|
E----------------------------------------------|

Intro 2 x1

e----------------------------------------------|
B----------------------------------------------|
G----------------------------------------------|
D--9--9--7-------------------------------------|
A--9--9--7-------------------------------------|
E--7--7--5-------------------------------------|

e----------------------------------------------|
B----------------------------------------------|
G----------9----------------9----------------9-|
D--11-9-11-----11-9-11-9-11-----11-9-11-9-11---|
A----------------------------------------------|
E----------------------------------------------|

Intro 1

e---------------------------------------------|
B---------------------------------------------|
G---------------------------------------------|
D--9--9--11-----------------------------------|
A--9--9--11-----------------------------------|
E--7--7--9------------------------------------|

e----------------------------------------------|
B----------------------------------------------|
G--11-9-11-9---11-9-11-9-11-9---11-9-11-9-11-9-|
D----------------------------------------------|
A----------------------------------------------|
E----------------------------------------------|

Bridge 1

e---------------------------------------------|
B---------------------------------------------|
G---------------------------------------------|
D--9--9--11---9--9--11----9--9--7----9--9--11-|
A--9--9--11---9--9--11----9--9--7----9--9--11-|
E--7--7--9----7--7--9-----7--7--5----7--7--9--|

Intro 1 x2

e---------------------------------------------|
B---------------------------------------------|
G---------------------------------------------|
D--9--9--11-----------------------------------|
A--9--9--11-----------------------------------|
E--7--7--9------------------------------------|

e----------------------------------------------|
B----------------------------------------------|
G--11-9-11-9---11-9-11-9-11-9---11-9-11-9-11-9-|
D----------------------------------------------|
A----------------------------------------------|
E----------------------------------------------|


Bridge 2

e------------------------------------------------|
B------------------------------------------------|
G------------------------------------------------|
D--9--9--11---9--9--11----9--9--7--4----9--9--11-|
A--9--9--11---9--9--11----9--9--7--4----9--9--11-|
E--7--7--9----7--7--9-----7--7--5--2----7--7--9--|


Chorus 1

e------------------------------------------------|
B------------------------------------------------|
G--6---------------------------------------------|
D--6-----7--4--11------4--7--9--11---------------|
A--4-----7--4--11------4--7--9--11---------------|
E--------5--2--9-------2--5--7--9----------------|


Bridge 3

e------------------------------------------------|
B------------------------------------------------|
G------------------------------------------------|
D--9--9--11---9--9--11----9--9--11---9--9--7-----|
A--9--9--11---9--9--11----9--9--11---9--9--7-----|
E--7--7--9----7--7--9-----7--7--9----7--7--5-----|


e----------------------------------------------------------|
B----------------------------------------------------------|
G----------------------------------------------------------|
D--9--9--11---9--9--11----9--9--11---9--9--7--4---9--9--11-|
A--9--9--11---9--9--11----9--9--11---9--9--7--4---9--9--11-|
E--7--7--9----7--7--9-----7--7--9----7--7--5--2---7--7--9--|

Chorus 2

e----------------------------------------------------------|
B----------------------------------------------------------|
G--6-------------------------------------------------------|
D--6-----7--4--11-----4--7--11-----4--7--11-----4--7--9-11-|
A--4-----7--4--11-----4--7--11-----4--7--11-----4--7--9-11-|
E--------5--2--9------2--5--9------2--5--9------2--5--7-9--|


Solo

e----------------------------------------------------------|
B---11b13--11~~-------9b11--9~~-------11b13--11~~----------|
G---11b13--11~~-------9b11--9~~-------11b13--11~~----------|
D----------------11--------------11------------------------|
A----------------11--------------11------------------------|
E----------------9---------------9-------------------------|

e----------------------------------------------------------|
B----12b14--11b13--9b11~~----------------------------------|
G----------------------------------------------------------|
D---------------------------11-----------------------------|
A---------------------------11-----------------------------|
E---------------------------9------------------------------|


e------------------------------------------------------------|
B---11b13--11~~-------9b11--9~~-------11b13--11~~---9--------|
G---11b13--11~~-------9b11--9~~-------11b13--11~~---9--------|
D----------------11--------------11-----------------------11-|
A----------------11--------------11-----------------------11-|
E----------------9---------------9------------------------9--|


e----------------------------------------------------------|
B---11b13--11~~-------9b11--9~~-------11b13--11~~----------|
G---11b13--11~~-------9b11--9~~-------11b13--11~~----------|
D----------------11--------------11------------------------|
A----------------11--------------11------------------------|
E----------------9---------------9-------------------------|


e----------------------------------------------------------|
B----12b14--11b13--9b11~~----------------------------------|
G----------------------------------------------------------|
D---------------------------11-----------------------------|
A---------------------------11-----------------------------|
E---------------------------9------------------------------|


e----------------------------------------------------------|
B---11b13--11~~-------9b11--9~~-------11b13--11~~--9-b-b-b-|
G---11b13--11~~-------9b11--9~~-------11b13--11~~--9-b-b-b-|
D----------------11--------------11------------------------|
A----------------11--------------11------------------------|
E----------------9---------------9-------------------------|

Bass Notes
e------------------------------------------------|
B------------------------------------------------|
G------------------------------------------------|
D------------------------------------------------|
A------------------------------------------------|
E---555555522222229999999------------------------|


Play x2

e------------------------------------------------|
B------------------------------------------------|
G------------------------------------------------|
D------------------------------------------------|
A---4--7--9--11----------------------------------|
E---2--5--7--9-----------------------------------|
Muffle After Strumming

e------------------------------------------------|
B------------------------------------------------|
G------------------------------------------------|
D--1414141414141411111111111111------------------|
A--121212121212129-9-9-9-9-9-9-11111111111111----|
E------------------------------9-9-9-9-9-9-9-----|

e------------------------------------------------|
B------------------------------------------------|
G------------------------------------------------|
D------------------------------------------------|
A---4--7--9--11----------------------------------|
E---2--5--7--9-----------------------------------|
Muffle After Strumming


e------------------------------------------------|
B------------------------------------------------|
G------------------------------------------------|
D--14141414141414111111111111111111111111111111--|
A--121212121212129-9-9-9-9-9-9-9-9-9-9-9-9-9-9---|
E------------------------------------------------|

Chorus 3 x2

e------------------------------------|------------|
B------------------------------------|------------|
G------------------------------------|------------|
D---11----7-----9-----11----7----9---|------9-11--|
A---11----7-----9-----11----7----9---|------9-11--|
E---9-----5-----7-----9-----5----7---|------7-9---|

e----------------------------------------------|
B----------------------------------------------|
G--11-9-11-9---11-9-11-9-11-9---11-9-11-9-11-9-|
D----------------------------------------------|
A----------------------------------------------|
E----------------------------------------------|


Intro 1 x3

e---------------------------------------------|
B---------------------------------------------|
G---------------------------------------------|
D--9--9--11-----------------------------------|
A--9--9--11-----------------------------------|
E--7--7--9------------------------------------|


e----------------------------------------------|
B----------------------------------------------|
G--11-9-11-9---11-9-11-9-11-9---11-9-11-9-11-9-|
D----------------------------------------------|
A----------------------------------------------|
E----------------------------------------------|


e---------------------------------------------|
B---------------------------------------------|
G---------------------------------------------|
D--9--9--11-----------------------------------|
A--9--9--11-----------------------------------|
E--7--7--9------------------------------------|


Gotta do a little bit of reminiscing on the days that just gone by
They say don't look back but I take things in stride
Everybody wanna minimize
They want to change what can't be undone
I can see it's a recipe that always leads to just no fun

Haven't slipped that time to take you back
I got a few regrets of my own
She had a diamond eye, beauty all her own
Where are you now girl
You know you got that special place
I always see you when love spits in my face

Regrets, I've had mine

Lonely nights and a whole lot of wasted time
If you see her won't you tell her for me
It's better this way to avoid our misery

It's a little bit of luck but whole a lot of hard work takes a toll
Most people don't know when they walk in heartache is what's in store
I thought I'd given up
and settled on the blues
But I'd always think of her when I didn't know what to do

It'll be my burden didn't strike when it got hot
When she walked on, I didn't know what I'd just lost
Maybe she's out there and thinking just like me
What if, what would have happened
What could have been

Regrets, I've had mine

Lonely nights and a whole lot of wasted time
If you see her won't you tell her for me
It's better this way to avoid our misery

Regrets, I've had mine

Lonely times and too many wasted nights
If you see her won't you tell her for me
It's better this way to avoid our misery


Regrets, I've had mine
Regrets, I've had mine

Sometimes, when I think back
I wonder where it was that I lost track
And I think of you, ha ha baby who knew
Who knew

She's out there, she's somewhere
I'm losing my head again
She's always haunting me
I'm going out of my head

Regrets, I've had mine

Lonely nights and a whole lot of wasted time
If you see her won't you tell her for me
It's better this way to avoid our misery

Regrets, I've had mine

Lonely times and too many wasted nights
If you see her won't you tell her for me
It's better this way to avoid our misery

I'm full of regret, I'm full of regret!

I'm full of regret, I'm full of regret!
Добавлено: 04.04.2012
Другие материалы по этой песне:

Страница создана 04.04.2012
http://primanota.ru/danko-jones/full-of-regret-chords.htm
Привет, Гость.
Предлагаем пройти революционный курс по гитаре.
Подарок от PrimaNota.Ru, забирай!