PrimaNota.ru - самый крупный в мире бесплатный архив песенных текстов, аккордов, табулатур и нот


Danko Jones - Baby Hates Me - текст песни, таба, бас-таба, видео

Регистрация Запомнить меня
Войти через:  Facebook Google Twitter Vk Yandex Mail.ru

Danko Jones - Baby Hates Me - текст песни, таба, бас-таба, видео

Печатать
Просмотров: 210
Band: Danko Jones
Song: Baby Hates Me
Album: Sleep Is The Enemy (2006)

This song has got two guitars, but I primary tabbed out the first one.
It's a great song and I hope this tab is helpful. HF!

Intro:
e|:-----------------------------------------------------:|--|
B|:-----------------------------------------------------:|--|
G|:--13-13-13-13--13-13-13-13--13-13-13-13--13-11-11-13-:|--|
D|:--13-13-13-13--13-13-13-13--13-13-13-13--13-11-11-13-:|5x|
A|:--11-11-11-11--11-11-11-11--11-11-11-11--11-9--9--11-:|--|
E|:-----------------------------------------------------:|--|

e|:-----------------------------------------------|
B|:-----------------------------------------------|
G|:--13-13-13-13--13-13-13-13--13-13-13-13--13-13-|
D|:--13-13-13-13--13-13-13-13--13-13-13-13--13-13-|
A|:--11-11-11-11--11-11-11-11--11-11-11-11--11-11-|
E|:-----------------------------------------------|

Verse:
e|-------------------------------------|:----------------------------------:|--|
B|-------------------------------------|:----------------------------------:|--|
G|--4--------4--------4--------4-------|:-4--------4--------4---6--4-------:|--|
D|--4-4-4s6--4-4-4s6--4-4-4s6--4-4-4s6-|:-4-4-4s6--4-4-4s6--2-4-6--4-4-4s6-:|4x|
A|--2-4-2s6--2-4-2s6--2-4-2s6--2-4-2s6-|:-2-4-2s6--2-4-2s6--2-4-4--2-4-4s6-:|--|
E|----2-2s4----2-2s4----2-2s4----2-2s4-|:---2-2s4----2-2s4----2------2-2s4-:|--|
                                                 |vocals-->

e|:-----------------------:|--|---------------------------|
B|:-----------------------:|--|---------------------------|
G|:--------13-13-13-13-13-:|--|-13-13-13------------------|
D|:------9-13-13-13-13-13-:|7x|-13-13-13-13-13-13-13-13-13|
A|:--------11-11-11-11-11-:|--|-9--9--9--13-13-13-13-13-13|
E|:-9-11------------------:|-------------9--9--9--9--9--9-|

Chorus:
e|:----------------------:|--|-------------------------|
B|:----------------------:|--|-------------------------|
B|:--------9-9--9--------:|--|-----------9-9-----------|
D|:--6-9-9-9-9--9-9-4s6--:|4x|-11-11-9-9-9-9-4-4-4-4-6-|
A|:--4-9-9-7-7--7-9-4s6--:|--|-11-11-9-9-7-7-4-4-4-4-6-|
E|:--4-7-7--------7-2s4--:|--|-9--9--7-7-----2-2-2-2-4-|

Verse:
e|:----------------------------------:|--|
B|:----------------------------------:|--|
G|:-4--------4--------4---6--4-------:|--|
D|:-4-4-4s6--4-4-4s6--2-4-6--4-4-4s6-:|2x|
A|:-2-4-2s6--2-4-2s6--2-4-4--2-4-4s6-:|--|
E|:---2-2s4----2-2s4----2------2-2s4-:|--|

e|:-----------------------:|--|-----------------------------|
B|:-----------------------:|--|-----------------------------|
G|:--------13-13-13-13-13-:|--|-13-13-13--------------------|
D|:------9-13-13-13-13-13-:|7x|-13-13-13--13-13-13-13-13-13-|
A|:--------11-11-11-11-11-:|--|-9--9--9---13-13-13-13-13-13-|
E|:-9-11------------------:|--|-----------9--9--9--9--9--9--|

Chorus:
e|:--------------------------------:|--|-------------------------|
B|:--------------------------------:|--|-------------------------|
G|:--------9-9-x-x-9---------------:|--|-----------9-9-----------|
D|:--6-9-9-9-9-x-x-9-9-4s6-x-x-x-x-:|6x|-11-11-9-9-9-9-4-4-4-4-6-|
A|:--4-9-9-7-7-x-x-7-9-4s6-x-x-x-x-:|--|-11-11-9-9-7-7-4-4-4-4-6-|
E|:--4-7-7-----------7-2s4-x-x-x-x-:|--|-9--9--7-7-----2-2-2-2-4-|

With two guitars:
4x 1st guitar plays normal chords, 2nd plays the x-notes.
Last two times both guitars play the normal chords.

Outro:
e|:-----------------------------------------------------:|--|
B|:-----------------------------------------------------:|--|
G|:--13-13-13-13--13-13-13-13--13-13-13-13--13-11-11-13-:|--|
D|:--13-13-13-13--13-13-13-13--13-13-13-13--13-11-11-13-:|8x|
A|:--11-11-11-11--11-11-11-11--11-11-11-11--11-9--9--11-:|--|
E|:-----------------------------------------------------:|--|
2nd guitar enters at 3rd repeat and plays the end-part of the chorus under it.
e|:-----------------------------------------------|
B|:-----------------------------------------------|
G|:--13-13-13-13--13-13-13-13--13-13-13-13--13-13-|
D|:--13-13-13-13--13-13-13-13--13-13-13-13--13-13-|
A|:--11-11-11-11--11-11-11-11--11-11-11-11--11-11-|
E|:-----------------------------------------------|

e|:--------------------------------:|---|
B|:--------------------------------:|---| First 2x: Breaks instead of x-notes
G|:--------9-9-x-x-9---------------:|---|
D|:--6-9-9-9-9-x-x-9-9-4s6-x-x-x-x-:|10x|
A|:--4-9-9-7-7-x-x-7-9-4s6-x-x-x-x-:|---|
E|:--4-7-7-----------7-2s4-x-x-x-x-:|---|
Добавлено: 28.03.2012
Другие материалы по этой песне:

Страница создана 24.02.2012
http://primanota.ru/danko-jones/baby-hates-me-chords.htm
Привет, Гость.
Предлагаем пройти революционный курс по гитаре.
Подарок от PrimaNota.Ru, забирай!