PrimaNota.ru - самый крупный в мире бесплатный архив песенных текстов, аккордов, табулатур и нот


Danko Jones - Apology Accepted - таба, видео

Регистрация Запомнить меня
Войти через:  Facebook Google Twitter Vk Yandex Mail.ru

Danko Jones - Apology Accepted - таба, видео

Печатать
Просмотров: 126
|----------------------------------------|
| Danko Jones                            |
| Apology Accepted                       |
| From the album : Below The Belt (2010) |
|----------------------------------------|


INTRO / VERSE (main riff)

e |--------------------------------------|
B |--------------------------------------|
G |--9--9--9--9--9-----------------------|
D |--9--9--9--9--9----10--10----9--9--9--|
A |--7--7--7--7--7----10--10----9--9--9--|
E |-------------------8---8-----7--7--7--|


e |-------------------------------------------------|
B |-------------------------------------------------|
G |-------------------------------------------------|
D |--7--9----10--10--10--10--10----5--5----2--2--2--|
A |--7--9----10--10--10--10--10----5--5----2--2--2--|
E |--5--7----8---8---8---8---8-----3--3----0--0--0--|


PRE-CHORUS

e |-----------------------------------------------|
B |-----------------------------------------------|
G |-----------------------------------------------|
D |--9--10--10----10--7--7----9--5--5----7--2--2--|
A |--9--10--10----10--7--7----9--5--5----7--2--2--|
E |--7--8---8-----8---5--5----7--3--3----5--0--0--|


CHORUS

e |-------------------------------------------|
B |-------------------------------------------|
G |--9----------------------------------------|
D |--9--(x16)--10---------7---------2---------|
A |--7---------10--(x16)--7--(x16)--2--(x16)--|
E |------------8----------5---------0---------|

e |----------------------------------------------|
B |----------------------------------------------|
G |--9-------------------------------------------|
D |--9--(x16)--10---------7---------5--4--2--2~--|
A |--7---------10--(x16)--7--(x16)--5--4--2--2~--|
E |------------8----------5---------3--2--0--0~--|


BRIDGE (after the 2nd chorus / play 4 times)

e |--------------------------------------------------|
B |--------------------------------------------------|
G |----------------5~-------------7~-----------------|
D |--(2)--5--4-----5~----5--4-----7~----5--4-----2~--|
A |--(2)--5--4-----3~----5--4-----5~----5--4-----2~--|
E |--(0)--3--2--0--------3--2--0--------3--2--0--0~--|



\m/. ^^ .\m/
Добавлено: 21.06.2012
Другие материалы по этой песне:
  • Аккорды и текст

Страница создана 24.03.2012
http://primanota.ru/danko-jones/apology-accepted-chords.htm
Привет, Гость.
Предлагаем пройти революционный курс по гитаре.
Подарок от PrimaNota.Ru, забирай!