PrimaNota.ru - самый крупный в мире бесплатный архив песенных текстов, аккордов, табулатур и нот


Danko Jones - Active Volcanoes - текст песни, таба, видео

Регистрация Запомнить меня
Войти через:  Facebook Google Twitter Vk Yandex Mail.ru

Danko Jones - Active Volcanoes - текст песни, таба, видео

Печатать
Просмотров: 101
Active Volcanoes
Danko Jones
Below the Belt (2010)

Words & Music by Danko Jones, John Calabrese, and Dan Cornelius

GTR I - Standard Tuning "Danko Jones" (e,B,G,D,A,E)

Intro

  GTR I
e|-------------------------------------------------|
B|-------------------------------------------------|
G|-------------------------------------------------|
D|-------------------------------------------------|
A|--5~-------------------3~----------------------5~|
E|-----------2-----3-----------------2-----3-------|

  GTR I
e|-------------------------------------------------|
B|-------------------------------------------------|
G|-----------------------5-------------------------|
D|-----------------------5-------------------------|
A|-----------------------3-------------------------|
E|-----------2-----3-------------------------------|

  GTR I
e|-------------------------------------------------|
B|-------------------------------------------------|
G|-------------------------------------------------|
D|-------------------------------------------------|
A|--5~-------------------3~----------------------5~|
E|-----------2-----3-----------------2-----3-------|

  GTR I
e|-------------------------------------------------|
B|-------------------------------------------------|
G|-----------------------5-------------------------|
D|-----------------------5-------------------------|
A|-----------------------3-------------------------|
E|-----------2-----3-------------------------------|

Verse

  GTR I
e|-------------------------------------------------|
B|-------------------------------------------------|
G|--7--7-------------------------------------------|
D|--7--7--------------------5--5-------------------|
A|--5--5--------------------5--5-------------------|
E|--------------------------3--3-------------------|

  GTR I
e|-------------------------------------------------|
B|-------------------------------------------------|
G|--5--5-------------------------------------------|
D|--5--5--------------------5--5-------------------|
A|--3--3--------------------5--5-------------------|
E|--------------------------3--3-------------------|

  GTR I
e|-------------------------------------------------|
B|-------------------------------------------------|
G|--7--7-------------------------------------------|
D|--7--7--------------------5--5-------------------|
A|--5--5--------------------5--5-------------------|
E|--------------------------3--3-------------------|

  GTR I
e|-------------------------------------------------|
B|-------------------------------------------------|
G|--5--5-------------------------------------------|
D|--5--5--------------------5--5-------------------|
A|--3--3--------------------5--5-------------------|
E|--------------------------3--3-------------------|

Verse 2

  GTR I
e|-------------------------------------------------|
B|-------------------------------------------------|
G|--7--7-------------------------------------------|
D|--7--7--------------------5--5-------------------|
A|--5--5--------------------5--5-------------------|
E|--------------------------3--3-------------------|

  GTR I
e|-------------------------------------------------|
B|-------------------------------------------------|
G|--5--5-------------------------------------------|
D|--5--5--------------------5--5-------------------|
A|--3--3--------------------5--5-------------------|
E|--------------------------3--3-------------------|

  GTR I
e|-------------------------------------------------|
B|-------------------------------------------------|
G|--7--7-------------------------------------------|
D|--7--7--------------------5--5-------------------|
A|--5--5--------------------5--5-------------------|
E|--------------------------3--3-------------------|

  GTR I
e|-------------------------------------------------|
B|-------------------------------------------------|
G|--5--5--5--5--5--5--5--5-------------------------|
D|--5--5--5--5--5--5--5--5--5--5--5--5--5--5-------|
A|--3--3--3--3--3--3--3--3--5--5--5--5--5--5-------|
E|--------------------------3--3--3--3--3--3--7\---|

Intro

Chorus

  GTR I
e|-------------------------------------------------|
B|-------------------------------------------------|
G|--4--4--4--4--4--4--4--4--4--4--4--4--4--4--4--4-|
D|--4--4--4--4--4--4--4--4--4--4--4--4--4--4--4--4-|
A|--2--2--2--2--2--2--2--2--2--2--2--2--2--2--2--2-|
E|-------------------------------------------------|

  GTR I
e|-------------------------------------------------|
B|-------------------------------------------------|
G|--2--2--2--2--2--2--2--2--2--2--2--2--2--2--2--2-|
D|--2--2--2--2--2--2--2--2--2--2--2--2--2--2--2--2-|
A|--0--0--0--0--0--0--0--0--0--0--0--0--0--0--0--0-|
E|-------------------------------------------------|

  GTR I
e|-------------------------------------------------|
B|-------------------------------------------------|
G|-------------------------------------------------|
D|--5--5--5--5--5--5--5--5--5--5--5--5--5--5--5--5-|
A|--5--5--5--5--5--5--5--5--5--5--5--5--5--5--5--5-|
E|--3--3--3--3--3--3--3--3--3--3--3--3--3--3--3--3-|

  GTR I
e|-------------------------------------------------|
B|-------------------------------------------------|
G|--2--2--2--2--2--2--2--2--2--2--2--2--2--2--2--2-|
D|--2--2--2--2--2--2--2--2--2--2--2--2--2--2--2--2-|
A|--0--0--0--0--0--0--0--0--0--0--0--0--0--0--0--0-|
E|-------------------------------------------------|

Intro

Verse 3

  GTR I
e|-------------|-------------|-------------|-------------|
B|-------------|-------------|-------------|-------------|
G|-------------|-------------|-------------|-------------|
D|-------------|-------------|-------------|-------------|
A|-------------|-------------|-------------|-------------|
E|-------------|-------------|-------------|-------------|

Verse 2
Intro
Chorus

Chorus 2

  GTR I
e|-------------------------------------------------|
B|-------------------------------------------------|
G|--4--4--4--4--4--4--4--4--4--4--4--4--4--4--4--4-|
D|--4--4--4--4--4--4--4--4--4--4--4--4--4--4--4--4-|
A|--2--2--2--2--2--2--2--2--2--2--2--2--2--2--2--2-|
E|-------------------------------------------------|

  GTR I
e|-------------------------------------------------|
B|-------------------------------------------------|
G|--2--2--2--2--2--2--2--2--2--2--2--2--2--2--2--2-|
D|--2--2--2--2--2--2--2--2--2--2--2--2--2--2--2--2-|
A|--0--0--0--0--0--0--0--0--0--0--0--0--0--0--0--0-|
E|-------------------------------------------------|

  GTR I
e|-------------------------------------------------|
B|-------------------------------------------------|
G|-------------------------------------------------|
D|--5--5--5--5--5--5--5--5--5--5--5--5--5--5--5--5-|
A|--5--5--5--5--5--5--5--5--5--5--5--5--5--5--5--5-|
E|--3--3--3--3--3--3--3--3--3--3--3--3--3--3--3--3-|

  GTR I
e|-------------------------------------------------|
B|-------------------------------------------------|
G|--2--2--2--2--2--2--2--2-------------------------|
D|--2--2--2--2--2--2--2--2-------------------------|
A|--0--0--0--0--0--0--0--0--0--2--3--2--3--4--3--4-|
E|-------------------------------------------------|

Guitar Solo

  GTR I
e|-------------------------------------------------|
B|-15~------15~---15~---15-15~------15~---15-15-13-|
G|-------------------------------------------------|
D|-------------------------------------------------|
A|-------------------------------------------------|
E|-------------------------------------------------|

   hold--------------------
e|-15b------15----15----15-15r15-------------------|
B|-------------------------------------------------|
G|-------------------------------------------------|
D|-------------------------------------------------|
A|-------------------------------------------------|
E|-------------------------------------------------|

   hold--------------------
e|-20b------20----20----20-20r20----------20p19p17-|
B|-------------------------------------------------|
G|-------------------------------------------------|
D|-------------------------------------------------|
A|-------------------------------------------------|
E|-------------------------------------------------|

   hold----------------
e|-------------------------------------------------|
B|-19b------19----19---r19-15~---------------------|
G|-------------------------------------------------|
D|-------------------------------------------------|
A|-------------------------------------------------|
E|-------------------------------------------------|

  GTR I
e|-------------------------------------------------|
B|----------13~------------13-17----15~------15-13-|
G|-12-14-16----------14-16-------------------------|
D|-------------------------------------------------|
A|-------------------------------------------------|
E|-------------------------------------------------|

  GTR I
e|-------------------------------------------------|
B|-17b---17----15-17-15----------------------------|
G|----------------------14-------------------------|
D|-------------------------------------------------|
A|-------------------------------------------------|
E|-------------------------------------------------|

  GTR I
e|-------------------------------------------------------------15b--|
B|-15p12-----15p12-----15p12-----15p12-----15p12-----15p12----------|
G|------14p12-----14p12-----14p12-----14p12-----14p12-----14p12-----|
D|------------------------------------------------------------------|
A|------------------------------------------------------------------|
E|------------------------------------------------------------------|

  GTR I
e|-------------------------------------------------------------20b--|
B|-15p12-----15p12-----15p12-----15p12-----15p12-----15p12----------|
G|------14p12-----14p12-----14p12-----14p12-----14p12-----14p12-----|
D|------------------------------------------------------------------|
A|------------------------------------------------------------------|
E|------------------------------------------------------------------|

Interlude

  GTR I
e|-------------------------------------------------|
B|-------------------------------------------------|
G|--4----------------------------------------------|
D|--4----------------------------------------------|
A|--2----------------------------------------------|
E|-------------------------------------------------|

  GTR I
e|-------------------------------------------------|
B|-------------------------------------------------|
G|--2----------------------------------------------|
D|--2----------------------------------------------|
A|--0----------------------------------------------|
E|-------------------------------------------------|

  GTR I
e|-------------------------------------------------|
B|-------------------------------------------------|
G|-------------------------------------------------|
D|--5----------------------------------------------|
A|--5----------------------------------------------|
E|--3----------------------------------------------|

  GTR I
e|-------------------------------------------------|
B|-------------------------------------------------|
G|--2----------------------------------------------|
D|--2----------------------------------------------|
A|--0----------------------------------------------|
E|-------------------------------------------------|

Verse 2
Intro

Outro

  GTR I
e|-------------------------------------------------|
B|-------------------------------------------------|
G|-------------------------------------------------|
D|-------------------------------------------------|
A|--5~-------------------3~----------------------5~|
E|-----------2-----3-----------------2-----3-------|

  GTR I
e|-------------------------------------------------|
B|-------------------------------------------------|
G|-----------------------5-------------------------|
D|-----------------------5-------------------------|
A|-----------------------3-------------------------|
E|-----------2-----3-------------------------------|

  GTR I
e|-------------------------------------------------|
B|-------------------------------------------------|
G|-------------------------------------------------|
D|-------------------------------------------------|
A|--5~-------------------3~----------------------5~|
E|-----------2-----3-----------------2-----3-------|

  GTR I
e|-------------------------------------------------|
B|-------------------------------------------------|
G|-----------------------5-----5--5--5--5--5-----5-|
D|-----------------------5-----5--5--5--5--5-----5-|
A|-----------------------3-----3--3--3--3--3-----3-|
E|-----------2-----3--------------------------5----|

  GTR I
e|-------------------------------------------------|
B|-------------------------------------------------|
G|-----5--5--5--5--5-----5-----5--5--5--5--5-----7-|
D|-----5--5--5--5--5-----5-----5--5--5--5--5-----7-|
A|-----3--3--3--3--3-----3-----3--3--3--3--3-----5-|
E|--------------------5-----------------------5----|


| b  bend
| r  release bend
|trp triplet
|PH. pinch harmonic
|fbk feedback
| .  palm-mute
| /  slide up
| \  slide down
| h  hammer-on
| p  pull-off
| ~  vibrato
|(7) harmonic
| x  Mute note
===============================================================================

Добавлено: 18.05.2012
Другие материалы по этой песне:

Страница создана 24.04.2012
http://primanota.ru/danko-jones/active-volcanoes-chords.htm
Привет, Гость.
Предлагаем пройти революционный курс по гитаре.
Подарок от PrimaNota.Ru, забирай!