PrimaNota.ru - самый крупный в мире бесплатный архив песенных текстов, аккордов, табулатур и нот


Danilo Montero - Eres Todopoderoso - таба, видео

Регистрация Запомнить меня
Войти через:  Facebook Google Twitter Vk Yandex Mail.ru

Danilo Montero - Eres Todopoderoso - таба, видео

Печатать
Просмотров: 131
http://danilomontero.com/

[/=slide]

-INTRO-

Other Guitar: B

e------------------------------------------------------------|
B------------------------------------------------------------|
G-------------7---------11-----------------------------------|
D-------7/9-------9/12-------12---12-------------------------|
A---------------------------------------9-9------------------|
E------------------------------------------------------------|

-VERSES-

Bm                   G
La única razón de mi adoración
   D          A
Eres tú mi Jesús...

Bm                     G
Mi único motivo para vivir
  D           A
eres tú mi Señor...


(Follow same chords throughout the song)

Pre-choro:
Mi única verdad
Está en tí, eres mi luz
y mi salvación...
Mi único amor
Eres tú, Señor
y por siempre te alabaré...

Choro:
Tú eres todopoderoso
Eres grande y majestuoso,
Eres fuerte, invencible
y no hay nadie como tú...

La única razón de mi adoración
Eres tú mi Jesús... (eres tú mi Jesús...)
Mi único motivo para vivir
eres tú mi Señor...

(Pre-choro)

(Choro)x6

Solo:

e------------------------------------------------------------|
B--------5---7------5---7/10---8---7---10--------------------|
G-----7----------7-------------------------------------------|
D------------------------------------------------------------|
A------------------------------------------------------------|
E------------------------------------------------------------|

e---------------------------10---12---14---12----------------|
B--------5---7------5---7------------------------------------|
G-----7----------7-------------------------------------------|
D------------------------------------------------------------|
A------------------------------------------------------------|
E------------------------------------------------------------|

No hay nadie como tú... Señor...
Eres tú señor...
Tú eres todopoderoso...

Gracias a:

Las Bestias del
Esteban y Jean Paul

----ECUADOR!!!-----
Добавлено: 21.07.2012
Другие материалы по этой песне:

Страница создана 15.03.2012
http://primanota.ru/danilo-montero/eres-todopoderoso-chords.htm
Привет, Гость.
Предлагаем пройти революционный курс по гитаре.
Подарок от PrimaNota.Ru, забирай!