PrimaNota.ru - самый крупный в мире бесплатный архив песенных текстов, аккордов, табулатур и нот


Danielle Bradbery - Grandpa Tell Me Bout The Good Ol Days - таба, видео

Регистрация Запомнить меня
Войти через:  Facebook Google Twitter Vk Yandex Mail.ru

Danielle Bradbery - Grandpa Tell Me Bout The Good Ol Days - таба, видео

Печатать
Просмотров: 65
Авторы: Jamie O’Hara

-------------------------------------------------------------------------------
                             SONG NAME - Band Name
-------------------------------------------------------------------------------
Tabbed by:
E-mail:

Tuning:

e|---------------------------|----------------------|
B|----9--9---7--5--7------5--|--9-9---7---5h7--5--7-|
G|--------------------6------|----------------------|
D|---------------------------|----------------------|
A|---------------------------|----------------------|
E|---------------------------|----------------------|

e|---------------------------|
B|-----9--9--7-----5---------|
G|--------------6------------|
D|---------------------------|
E|---------------------------|



************************************

| /   slide up
| \   slide down
| h   hammer-on
| p   pull-off
| ~   vibrato
| +   harmonic
| x   Mute note
| b   Bend
| pb  Pre-bend
| br  Bend release
| pbr Pre-bend release
| brb Bend release bend

************************************
Добавлено: 16.11.2015
Другие материалы по этой песне:
  • Аккорды и текст

Страница создана 16.11.2015
http://primanota.ru/danielle-bradbery/grandpa-tell-me-bout-good-ol-days-chords.htm
Привет, Гость.
Предлагаем пройти революционный курс по гитаре.
Подарок от PrimaNota.Ru, забирай!