PrimaNota.ru - самый крупный в мире бесплатный архив песенных текстов, аккордов, табулатур и нот


Daniele Silvestri - Un Giorno Lontano - аккорды и текст, видео

Регистрация Запомнить меня
Войти через:  Facebook Google Twitter Vk Yandex Mail.ru

Daniele Silvestri - Un Giorno Lontano - аккорды и текст, видео

Печатать
Просмотров: 115
Un Giorno Lontano
Daniele Silvestri
		   Un giorno lontano

Intro:  | D | E | Fa#m | Do#m | D | A | Do#m | Do#m | (2v.)

D        E      Fa#m    Do#m      D        A          Do#m
Un giorno lontano sorriderò persino ma adesso non ci sei più
D     E      Fa#m     Do#m            D        A          Do#m
domani per caso confonderò il tuo viso, ma adesso non ci sei più
D        E        Fa#m     Do#m         D      A             Do#m
non basta che giuri che scorderò chi eri, adesso, adesso ci sei tu
          D                 Do#m       D                   Do#m
nei miei occhi adesso ci sei tu, nelle orecchie adesso ci sei tu
       E
ci sei tu

            A  Fa#m  Do#m  E
ci sei solo tu
            A  Fa#m  Do#m  E
ci sei solo tu

D     E           Fa#m          Do#m          D        A             Do#m
sapere che è giusto che è tutto stanco e guasto non basta a non volerti più
D      E      Fa#m     Do#m        D      A             Do#m
vederti partire non ti farà sparire, adesso, adesso ci sei tu
          D                 Do#m       D                  Do#m
nei miei occhi adesso ci sei tu , sulla bocca adesso ci sei tu

            A  Fa#m  Do#m  E
ci sei solo tu
            A  Fa#m  Do#m  E
ci sei solo tu

| A | Fa#m | Do#m | E | (2v.)

arpeggio per intro e strofe:

  D               E               Fa#m             Do#m
  v   v   v   v    v   v   v   v    v   v   v   v    v   v   v   v
e|------10--------|------12--------|------9---------|----------------|
B|----7-----------|----9-----------|------10--------|------9---------|
G|--7-------------|--9-------------|----11----------|------10--------|
D|7---------------|9---------------|--11------------|----11----------|
A|----------------|----------------|9---------------|--11------------|
E|----------------|----------------|----------------|9---------------|

  D               A               Do#m             Do#m
  v   v   v   v    v   v   v   v    v   v   v   v    v   v   v   v
e|------10--------|------5---------|----------------|----------------|
B|----7-----------|----5-----------|------5-------5-|------5-------5-|
G|--7-------------|--8-------------|----6-----6-----|--6-------6-----|
D|7---------------|7---------------|--6---------6---|----6-------6---|
A|----------------|----------------|4---------------|----------------|
E|----------------|----------------|----------------|----------------|
     
Добавлено: 01.06.2013
Другие материалы по этой песне:
  • Аккорды и текст

Страница создана 01.06.2013
http://primanota.ru/daniele-silvestri/un-giorno-lontano-chords.htm
Привет, Гость.
Предлагаем пройти революционный курс по гитаре.
Подарок от PrimaNota.Ru, забирай!