PrimaNota.ru - самый крупный в мире бесплатный архив песенных текстов, аккордов, табулатур и нот


Daniele Silvestri - Seguimi - аккорды и текст, видео

Регистрация Запомнить меня
Войти через:  Facebook Google Twitter Vk Yandex Mail.ru

Daniele Silvestri - Seguimi - аккорды и текст, видео

Печатать
Просмотров: 80
Seguimi
Daniele Silvestri
		   Seguimi

Nota: l'accordo di FA# nell'intro e nella strofa è in realtà un Fa#7/11.

Intro: | E  Fa#(1/4) | (8v.)

E          Fa#E             Fa#E        Fa#E          F#
Forse è vero, non si vive così, è un errore non difendersi
E         Fa#E          Fa#E                Fa#E          F#
sulla faccia queste lacrime, con le braccia scese come i deboli
   D9        A9                 E
ma tu che ne sai se non ci provi mai

E             Fa#E              Fa#E          Fa#E           F#
Se i miei occhi non piangessero più sei sicura di guadagnarci tu?
E         Fa#E            Fa#E          Fa#E              F#
O hai paura che ti guarderei? Senza lacrime non mi sbaglierei
   D9        A9                    E
ma tu che ne sai, tu che non soffri mai

F#      Do#m
Seguimi
F#      Do#m
seguimi
F#      Do#m
seguimi

solo(1): | A | Fa#m | Do#m | Do#m | (2v.)

E         Fa#E               Fa#E        Fa#E          F#
Le tue mani che non tremano mai, la tua voce che non esita
E         Fa#E           Fa#E             Fa#E          F#
è una spada che ferisce sai, chi non ha difese non la evita
   D9        A9                    E
ma tu che ne sai, tu che non piangi mai

F#      Do#m
Seguimi
F#      Do#m
seguimi
F#      Do#m
seguimi

solo(2): | A | Fa#m | Do#m | Do#m/B | (2v.)

F#                                       Do#m
Seguimi, se hai la forza di rallentare
F#                                       Do#m
seguimi, se hai ginocchia per inciampare
F#                                       Do#m
seguimi, se hai il coraggio di peggiorare

(finale)| A | Fa#m | Do#m | Do#m |

Diteggiatura degli accordi particolari utilizzati:

  Fa#7/11  D9    A9
e----0------0------0-
B----0------3------0-
G----3------2------2-
D----4------0------2-
A----4------x------0-
E----0------x------x-

Tabulati delle parti più significative:

solo(1): (con wah wah)
  A               Fa#m             Do#m             Do#m
  v   v   v   v    v   v   v   v    v   v   v   v    v   v   v   v
B|------7---5-----|------7---5-----|------7---5-----|------7---5-----|

  A               Fa#m             Do#m             Do#m
  v   v   v   v    v   v   v   v    v   v   v   v    v   v   v   v
B|------7---5-----|------7---5-----|9---------------|----------------|

solo(2): B=bend di un tono
  A (wah wah)     Fa#m             Do#m (dist.)     Do#m
  v   v   v   v    v   v   v   v    v   v   v   v    v   v   v   v
B|------7---5-----|------7---5-----|6---6-4---------|6---6-4---------|
G|----------------|----------------|------------6---|------------6---|

  A (wah wah)     Fa#m
  v   v   v   v    v   v   v   v
B|------7---5-----|------7---5-----|
G|----------------|----------------|

  Do#m (dist.)                     Do#m
  v       v       v       v        v       v       v       v
B|12B-----12B-12----------9-------|12B-----12B-12----------9-------|
G|--------------------------------|--------------------------------|

finale:

  A               Fa#m             Do#m             Do#m
  v   v   v   v    v   v   v   v    v   v   v   v    v   v   v   v
e|----0-------0---|----0-------0---|----0-------0---|----0-------0---|
B|------0-------0-|------0-------0-|------0-------0-|------0-------0-|
G|----------------|----------------|----------------|----------------|
D|----------7-----|----------4-----|6---------6-----|6---------6-----|
A|7---------------|4---------------|4---------------|4---------------|
E|5---------------|2---------------|----------------|----------------|
     
Добавлено: 25.11.2013
Другие материалы по этой песне:
  • Аккорды и текст

Страница создана 25.11.2013
http://primanota.ru/daniele-silvestri/seguimi-chords.htm
Привет, Гость.
Предлагаем пройти революционный курс по гитаре.
Подарок от PrimaNota.Ru, забирай!