PrimaNota.ru - самый крупный в мире бесплатный архив песенных текстов, аккордов, табулатур и нот


Daniele Silvestri - La Bomba - аккорды и текст, видео

Регистрация Запомнить меня
Войти через:  Facebook Google Twitter Vk Yandex Mail.ru

Daniele Silvestri - La Bomba - аккорды и текст, видео

Печатать
Просмотров: 89
Уроки эстрадного вокала в Санкт-Петербурге
La Bomba
Daniele Silvestri
		   A bomba

Em Re/F#      Sol Re/F#    Em Re/F#      Sol Re/F#
Riflettendo sui fatti,           sui modi e sui tempi
Em    Re/F# Sol     Am            Sol/B Re/F#  C  Am
c'è da finire matti a pensare che un attimo solo bastò
Re/F#    Sol
adesso lo so.

Mim- Re/F#      Sol Re/F#    Em Re/F#  Sol Re/F#
E non è che rimpiangi,           nemmeno una volta
Em    Re/F# Sol          Am        Sol/B Re/F#       C   Am
e non è la coscienza che brucia, è l'assenza che il buio portò
          Re/F#    Sol
e che un giorno riavrò.

      E                          Sol#m
Non c'era nemmeno un segnale o il tempo di avere terrore
   Bm                                      A
soltanto l'odore bruciato di plastica e un cielo che ha sbagiato colore
     Am
è la luce che cambia, che cresce che esplode
     Em                   Em7
è la rabbia che sale e col sangue corrode
    Do#dim                             Fa#7
e intanto intuire o persino sapere che niente e nessuno
  B7                   Do(*)   D7
potrà mai spiegarmi perché

Em Re/F#      Sol Re/F#    Em Re/F#      Sol Re/F#
Ma tornando al presente,         c'è un rumore costante
Em    Re/F# Sol     Am        Sol/B Re/F#       C  Am  Re/F#  Sol
una nota stridente che ancora la mente scordare non può.

Em Re/F#         Sol Re/F# Em Re/F#        Sol           Re/F#
E' il regalo che ho avuto,      da quel giorno per me il mondo è muto
Em    Re/F#    Sol         Am   Sol/B   Re/F#  C  Am
e non chiedo un aiuto, anzi evito meglio di dire di no
      Re/F#    Sol
a chi cerca in quello che so.

      E                          SOL#m
Non c'era nemmeno un segnale o il tempo di avere terrore
   Bm                                      A
soltanto l'odore bruciato di plastica e un cielo che ha cambiato colore
      LAm
e la luce che cambia, che cresce, che esplode
      MIm                   MIm7
e la rabbia che sale e col sangue corrode
    Do#dim

e intanto intuire, o perfino sapere
     FA#7              B7                   Do(*)  Am   Em
che niente e nessuno potrà mai spiegarmi perché.

Intro:

  v     v     v     v      v     v     v     v      v     v     v     v

e:------------------------|------------------------|------------------------|
B:/3----3-----3----\1-----|/3----3-----3----\1-----|/3----3-----3----\1-----|
G:--4-----4-----4-----2---|--4-----4-----4-----2---|--4-----4-----4-----2---|
D:0---0-0---0-0---0-0---0-|0---0-0---0-0---0-0---0-|0---0-0---0-0---0-1---1-|
A:------------------------|------------------------|------------------------|
E:------------------------|------------------------|------------------------|

Strofa:

  v     v     v     v      v     v     v     v      v     v     v     v
  Em    D/F#  G     D/F#   Em    D/F#  G     D/F#   Em    D/F#  G     Am
e:------------------------|------------------------|------------------------|
B:----0-----0-----0-------|----0-----0-----0-------|----0-----0-----0-----1-|
G:--0-----2-----0----/4-2-|--0-----2-----0----/4-2-|--0-----2-----0-----2---|
D:------------------------|5-----------------------|5-----------------------|
A:------------------------|------------------------|------------------0-----|
E:0-----2-----3-----2-----|0-----2-----3-----2-----|0-----2-----3-----------|

                                                    (*)
  v     v     v     v      v     v     v     v      v     v     v     v
  E     Bm    C            Am    D/F#  G            C     D7
e:------------------0-----|------------------------|------------------------|
B:----0-----3-----1-1-----|----1-----3-----1-3-----|5---3-1-----------------|
G:--0-----4-----0---0-----|--2-----2-----0---------|------------------------|
D:------------------------|------------------------|------------------------|
A:------2-----3-------3-2-|0---------------0-2-----|3---2-0-----------------|
E:0-----------------------|------3-----3-----------|------------------------|
     
Добавлено: 01.12.2013
Другие материалы по этой песне:
  • Аккорды и текст

Страница создана 01.12.2013
http://primanota.ru/daniele-silvestri/la-bomba-chords.htm
Привет, Гость.
Предлагаем пройти революционный курс по гитаре.
Подарок от PrimaNota.Ru, забирай!