PrimaNota.ru - самый крупный в мире бесплатный архив песенных текстов, аккордов, табулатур и нот


Daniele Silvestri - Il Dado - аккорды и текст, видео

Регистрация Запомнить меня
Войти через:  Facebook Google Twitter Vk Yandex Mail.ru

Daniele Silvestri - Il Dado - аккорды и текст, видео

Печатать
Просмотров: 134
Il Dado
Daniele Silvestri
		   Il dado

Intro: |E5 Do5(1/4)|B5 La5(1/4)|Sol Do(1/4)|B5 La5(1/4)|
       |E5 Do5(1/4)|B5 La5(1/4)|Sol Do(1/4)|B5 La5(1/4) Sol5(1/4)|

E5 C5   B5     A5 Sol5      C5      B5      A5
Nessun rumore, nessun suono, nemmeno il mio respiro.
E5 C5   B5     A5     Sol5   C5  B5  A5 Sol
Giocarsi tutto in un momento, un solo lento tiro.

|E5 Do5(1/4)|B5 La5(1/4)|Sol Do(1/4)|B5 La5(1/4) Sol5(1/4)|

E5 C5   B5     A5 Sol5      C5      B5      A5
E intanto gira, il dado gira e cambia ancora verso.
E5 C5   B5     A5     Sol   C5  B5       A5 Sol
Il mio destino in una mano, sapendo già che ho perso.

|E5 Do5(1/4)|B5 La5(1/4)|Sol Do(1/4)|B5 La5(1/4)|
|E5 Do5(1/4)|B5 La5(1/4)|Sol Do(1/4)|B5 La5(1/4) Sol5(1/4)|

F
Ma adesso sono libero, adesso sono libero.

Riff

O forse sono morto, sicuro sono morto
oppure sono nato e non mi sono accorto.
Adesso posso cominciare veramente
o meglio posso non incominciare niente.
Se io non esisto non esiste nulla
quindi cerco una panchina che mi pare bella
o un ponte, ma è troppo letterario, non mi cerco niente
tanto evidentemente non c'è più mattina,
non c'è più sera, non c'è più riposo, non c'è più lavoro,
non c'è traffico, non c'è denaro,
non c'è più una sveglia per andare, sveglia per tornare,
non ci sono più catene
e non c'è nemmeno l'obbligo di stare bene.

E5 C5    B5   A5   Sol5   C5        B5 Sol5
Nessun rumore, nessun suono, nemmeno il mio.
E5     C5 B5 A5 Sol5     C5      B5   A5 Sol5
A fedeltà, la fedeltà, te la ricordi ancora?
E5    C5 B5 A5 Sol5     C5      B5  A5 Sol5
Che ambiguità, che falsità, che squallida chimera.

|E5 Do5(1/4)|B5 La5(1/4)|Sol Do(1/4)|B5 La5(1/4) Sol5(1/4)|

E5     C5 B5   A5    Sol5  C5       B5  A5 Sol5
A dignità, la mia onestà, se ci ripenso ora

|E5 Do5(1/4)|B5 La5(1/4)|Sol Do(1/4)|B5 La5(1/4) Sol5(1/4)|

E5     C5    B5    A5   Sol5    C5  B5   A5 Sol5
che ottusità, che senso ha, nemmeno tu eri vera

  v   v   v   v
A|----3-----------|
E|5-4---5-4-------|

Scommetterei ancora!

Riff:

  v   v   v   v    v   v   v   v    v   v   v   v    v   v   v   v
e|----------------|----------------|----------------|----------------|
B|----------------|----------------|----------------|----------------|
G|----------5-----|----------------|----------5---5-|----------------|
D|----------5-----|----------------|----------5---5-|----------------|
A|----3-----3-----|----3-----------|----3-----3---3-|----3-----------|
E|5-4---5-4-------|5-4---5-4-------|5-4---5-4-------|5-4---5-4-------|

  v   v   v   v    v   v   v   v    v   v   v   v    v   v   v   v
e|----------------|----------------|----------------|----------------|
B|----------------|----------------|----------------|----------------|
G|----------5---5-|----------------|----------5---5-|----------------| (3v.)
D|----------5---5-|----------5---5-|----------5---5-|----------2-----|
A|----3-----3---3-|----3-----5---5-|----3-----3---3-|----3-----2-----|
E|5-4---5-4-------|5-4---5-4-3---3-|5-4---5-4-------|5-4---5-4-0-----|
     
Добавлено: 27.09.2013
Другие материалы по этой песне:
  • Аккорды и текст

Страница создана 05.03.2012
http://primanota.ru/daniele-silvestri/il-dado-chords.htm
Привет, Гость.
Предлагаем пройти революционный курс по гитаре.
Подарок от PrimaNota.Ru, забирай!