PrimaNota.ru - самый крупный в мире бесплатный архив песенных текстов, аккордов, табулатур и нот


Daniela Andrade - Gentleman - аккорды и текст, таба, видео

Регистрация Запомнить меня
Войти через:  Facebook Google Twitter Vk Yandex Mail.ru

Daniela Andrade - Gentleman - аккорды и текст, таба, видео

Печатать
Просмотров: 190
Gentleman
Daniela Andrade
-------------------------------------------------------------------------------
                             GENTLEMAN - Daniela Andrade
-------------------------------------------------------------------------------
Tabbed by: Ndermawan
E-mail: ndermawan@yahoo.com

Tuning:Standard

Capo 3

All chords relative to capo (so capo 3 = 0)



Great song from a singer/songwriter with a beautiful voice, Daniela Andrade!

iTunes    : https://itunes.apple.com/us/artist/daniela-andrade/id434670871
Webshop   : http://shop.danielaandrade.com/
Reference : http://www.youtube.com/watch?v=2fOmk6pUob4


Chords used:

   Dm9 OR F   C7M   Dm7 Em7         G   |   Intro bit with F:
                                        |
e|--0-----0----0--------------------0---|---0--0-----------------------------|
B|--5-----1----0-----3---5----------3---|---1--1--3--1--0--------------------|
G|--5-----2----0-----2---4----------4---|---2--2--------0--------------------|
D|--3-----3----2-----3---5----------5---|---3--3--------2--------------------|
A|--5-----3----3-----3---5----------5---|---3--3--------3--------------------|
E|--x-----x-------------------------x---|---x--x-----------------------------|


I say Dm9 or F because imo they sound the same, whatever floats your boat,
and listen to the song for strumming rhythm - shouldn't be too hard.

- Also the end of intro Dm7+Em7 can be changed to an F and G chord
  with the same open shape that I wrote above (no barre) - easier to play


Intro:

   Dm9      C7M    Dm9      C7M            Dm9        C7M         Dm7 Em7 C

e|--0--0-----------0--0---------------------0--0-------------------0--0-0----|
B|--5--5-3----0----5--5--3-----0h1p0--------5--5--3-----0-0h1p0----3--3/5--1-|
G|--5--5---5--0----5--5-----5--0-----0------5--5-----5--0-------0--2--2/4--0-|
D|--3--3------2----3--3--------2-------0h2--3--3--------2----------3--3/5--2-|
A|--5--5------3----5--5--------3------------5--5--------3----------3--3/5--3-|
E|--x--x-----------x--x---------------------x--x-----------------------------|


Verse:

F                    C7M  
My day is well into the afternoon
F                    C7M  
And nothing's going right
F                    
The weeks are flying past
C7M  
I'm in over my head
F               F or(G)    C7M  
And I can't get you off my mind


F                             C7M  
It was the night I chose my favourite dress
F                             C7M  
And you were wearing your best suit
F                             C7M        
It was about that time when everyone was sound asleep
F           F or G     C7M  
And I was up talking to you


Break - mute strum a few times

Chorus: - fingerpick F + C7M   to get the keyboard/synth notes during chorus

Dm9              C7M             F  
No one told me the right way to fall
    F            C7M  
To fall deep in love
Dm9                          C7M        
But you held my heart in the right ways
F            G      C7M  
Just like a gentleman


-- Play intro part again for Instrumental break --


F                       C7M  
And it's so easy to get back to you
F                       C7M  
            And harder to get by
F                                      C7M  
Cause there's just something about the way you say my name
F                            C7M  
Softly through the telephone lines

Ooooh



Chorus x2


Dm9              C7M             F  
No one told me the right way to fall
    F            C7M  
To fall deep in love
Dm9                       C7M        
But you held my heart in the right ways
F            G      C7M  
Just like a gentleman

Dm9              C7M             F  
No one told me the right way to fall
    F            C7M  
To fall deep in love
Dm9                       C7M        
But you held my heart in the right ways
F            G      C7M  
Just like a gentleman
F            G      C7M  
Just like a gentleman

F G C7M  

End

Note: Played with 2 guitar tracks or more, 1 rhythm and 1 lead/adlibs 
      - might tab out the adlibs if people need them

************************************

| /   slide up
| \   slide down
| h   hammer-on
| p   pull-off
| ~   vibrato
| +   harmonic
| x   Mute note
| b   Bend
| pb  Pre-bend
| br  Bend release
| pbr Pre-bend release
| brb Bend release bend

************************************
Добавлено: 28.09.2014
Другие материалы по этой песне:
  • Аккорды и текст

Страница создана 28.09.2014
http://primanota.ru/daniela-andrade/gentleman-chords.htm
Привет, Гость.
Предлагаем пройти революционный курс по гитаре.
Подарок от PrimaNota.Ru, забирай!