PrimaNota.ru - самый крупный в мире бесплатный архив песенных текстов, аккордов, табулатур и нот


Daniel Skye - We Got Us - таба, видео

Регистрация Запомнить меня
Войти через:  Facebook Google Twitter Vk Yandex Mail.ru

Daniel Skye - We Got Us - таба, видео

Печатать
Просмотров: 115
-------------------------------------------------------------------------------
                            We Got Us - Daniel Skye
-------------------------------------------------------------------------------
Tabbed by: Jasmine Wellman
E-mail:

Tuning: standard, capo on fret 1

e|-----0--0------0--0------0--0------0--0--|
B|----------------------------------0------|
G|-----------------------------------------|
D|-----------------------------------------|
A|------------0----------------------------|
E|--0-------------------9------------------|

e|-----0--0------0--0-----0--0-------0--0--|
B|----------------------------------0------|
G|-----------------------------------------|
D|-----------------------------------------|
A|------------0----------------------------|
E|--0-------------------9------------------|

If the sky falls...



************************************

| /   slide up
| \   slide down
| h   hammer-on
| p   pull-off
| ~   vibrato
| +   harmonic
| x   Mute note
| b   Bend
| pb  Pre-bend
| br  Bend release
| pbr Pre-bend release
| brb Bend release bend

************************************
Добавлено: 20.06.2016
Другие материалы по этой песне:
  • Аккорды и текст

Страница создана 20.06.2016
http://primanota.ru/daniel-skye/we-got-us-chords.htm
Привет, Гость.
Предлагаем пройти революционный курс по гитаре.
Подарок от PrimaNota.Ru, забирай!