PrimaNota.ru - самый крупный в мире бесплатный архив песенных текстов, аккордов, табулатур и нот


Daniel Rossen - Saint Nothing - аккорды и текст, видео

Регистрация Запомнить меня
Войти через:  Facebook Google Twitter Vk Yandex Mail.ru

Daniel Rossen - Saint Nothing - аккорды и текст, видео

Печатать
Просмотров: 138
Уроки эстрадного вокала в Санкт-Петербурге
Авторы музыки: Daniel Rossen
Авторы текста: Daniel Rossen
Saint Nothing
Daniel Rossen
-------------------------------------------------------------------------------
                             Saint Nothing - Daniel Rossen
-------------------------------------------------------------------------------
Tabbed by: Miles
E-mail: mjohnson1915@gmail.com

Tuning: Standard

e|-x-x-x-x-1-|-x-|-x-x-|
B|-5-6-6-6-4-|-5-|-x-1-|
G|-5-7-7-7-1-|-3-|-2-2-|
D|-5-6-6-6-1-|-5-|-3-3-|
A|-3-x-8-6-3-|-3-|-3-x-|
E|-x-6-x-x-x-|-x-|-1-x-|

C  A#7  Ddim  ???  G#6/Fmin7  |  C7  |  F

Note: The chord this website's providing for Ddim as of 7/18/2012 is a Ddim7, and 
it won't sound right. You can finger Ddim as "x-x-0-1-3-1".
Добавлено: 14.11.2013
Другие материалы по этой песне:
  • Аккорды и текст

Страница создана 14.11.2013
http://primanota.ru/daniel-rossen/saint-nothing-chords.htm
Привет, Гость.
Предлагаем пройти революционный курс по гитаре.
Подарок от PrimaNota.Ru, забирай!