PrimaNota.ru - самый крупный в мире бесплатный архив песенных текстов, аккордов, табулатур и нот


Daniel Rossen - Made To Rise - таба, видео

Регистрация Запомнить меня
Войти через:  Facebook Google Twitter Vk Yandex Mail.ru

Daniel Rossen - Made To Rise - таба, видео

Печатать
Просмотров: 59
-------------------------------------------------------------------------------
                             SONG NAME - Band Name
-------------------------------------------------------------------------------
Really simple, pretty song. Capo 1.
Listen to the performance on KEXP to get the rhythm. The picking pattern is pretty loose so take the pattern
here as a guide. He stresses the bass notes

Tuning: Standard

e|-------0-------0-------0-------0-------0-------0-------0-3p0-0-------------|
B|---2-------2-------2-------2-------2-------2-------2-----2---3p2-----------|
G|---2-------2-------2-------2-------2-------2-------2-----2---2-------------|
D|-----2-------2-------2-------2-------2-------2-------2---2---2-------------|
A|-0---------------0---------------0---------------0-------------------------|
E|---------3---------------3---------------3---------------------------------|

e|-------0-------0-------0-------0-------0-------0-------0-------0-----------|
B|---2-------2-------2-------2-------2-------2-------2-------2---------------|
G|---2-------2-------2-------2-------2-------2-------2-------2---------------|
D|-----2-------2-------2-------2-------2-------2-------2-------2-------------|
A|-0---------------0---------------0---------------0-------------------------|
E|---------3---------------3---------------3---------------3-----------------|

He uses this pattern in the verse for these chords

e|-0---0---|
B|-2---1---|
G|-2---2---|
D|-2---3---|
A|-0---3---|
E|-3---x---|

Then:
(He varies the bass notes)
e|---0---0---0---0---0---0---0---0-----|
B|---0---0---0---0---0---0---0---0-----|
G|-----0-------0-------0-------0-------|
D|---------2-------3-------2-----------|
A|-------------------------------------|
E|-3-----------------------------------|

e|-0---|
B|-1---|
G|-0---| Hammer the top two fingers on and off - listen for the pattern
D|-2---|
A|-3---|
E|-3---|

Repeat that part 3 times in the first verse and 4 in the second

Chorus:
(Using picking pattern from earlier)
e|-0---0---0-----0----------1-------0---|
B|-1---1---0-----2----------1-------3---|
G|-2---2---0-2x--2-3x-------2-------0---|  Hammer the fingers on the second fret on
D|-3---0---2-----2----------3-------2---|
A|-3---0---0-----0----0-----3-------2---|
E|-x---2---3-----3------3-1-1-1-3-0-0---|

************************************

| /   slide up
| \   slide down
| h   hammer-on
| p   pull-off
| ~   vibrato
| +   harmonic
| x   Mute note
| b   Bend
| pb  Pre-bend
| br  Bend release
| pbr Pre-bend release
| brb Bend release bend

************************************
Добавлено: 10.06.2016
Другие материалы по этой песне:
  • Аккорды и текст

Страница создана 10.06.2016
http://primanota.ru/daniel-rossen/made-to-rise-chords.htm
Привет, Гость.
Предлагаем пройти революционный курс по гитаре.
Подарок от PrimaNota.Ru, забирай!