PrimaNota.ru - самый крупный в мире бесплатный архив песенных текстов, аккордов, табулатур и нот


Daniel Rossen - Golden Mile - таба, видео

Регистрация Запомнить меня
Войти через:  Facebook Google Twitter Vk Yandex Mail.ru

Daniel Rossen - Golden Mile - таба, видео

Печатать
Просмотров: 66
Авторы музыки: Daniel Rossen
Авторы текста: Daniel Rossen
                                  Golden Mile                                   

                                                                   Daniel Rossen
Open Em Tuning - EBEGBE (Capo 3)

Tabbed by: Tom Walter walter dot tom at gmail dot com

I'm still not quite finished this... but thought I'd get what I have up anyway.
The intro is a little tricky to play, which makes me wonder if the tuning is a
bit wrong... suggestions welcome.


     Q    E  E  E  E     Q    E  E  E  E     Q    E  E  E  E   
E||--4----4--0-----7--|-------4--0-----7--|-------4--0-----7--|
B||-------------0-----|-------------0-----|-------------0-----|
G||-------------------|-------------------|-------------------|
E||-------------------|-------------------|-------------------|
B||-------5-----------|-------5-----------|-------3-----------|
E||--0----------------|--0----------------|--0----------------|


  Q    E  E  E  E     Q    E  E  E  E     Q    E  E  E  E     Q    E  E  E  E   
-------4--0-----7--|-------2--0-----5--|-------2--0-----5--|-------1--0-----5--|
-------------0-----|-------------0-----|-------------0-----|-------------3-----|
-------------------|-------------------|-------------------|-------------------|
-------------------|-------------------|-------------------|-------------------|
-------3-----------|-------2-----------|-------2-----------|-------1-----------|
--0----------------|--0----------------|--0----------------|--0----------------|


  Q    E  E  E  E     Q    E  E  Q       E  E  Q    E  E     E  E  E  E  E  E   
-------1--0--------|-------4--4--4----|--4--0----------0--|-----0-----0-----0--|
-------------3-----|-------3--3--3----|--3--0----------0--|-----0-----0-----0--|
-------------------|-------4--4--4----|--4--4----------0--|-----0-----0-----0--|
----------------0--|--0----0-----0----|--0--0--0----------|--------------------|
-------1--------0--|--0----0-----0----|--0--0--0----------|--------------0-----|
--0----------------|--0----0-----0----|--0-----0----2-----|--3-----5-----------|


  E  E  E  E  E  E     E  E  E  E  E  E     E  E  E  E  E  E   
-----0-----0-----0--|-----0-----0-----0--|-----0-----0-----0--|
-----0-----0-----0--|-----1-----1-----1--|-----1-----1-----1--|
-----0-----0-----0--|-----0-----0--2-----|--0--------0-----0--|
--------------------|--------0-----------|--------------0-----|
--3-----------0-----|--1-----------------|--------3-----------|
--------5-----------|--------------------|--------------------|


  Q    E  E  E  E     Q    E  E  E  E     Q    E  E  E  E     Q    E  E  E  E   
-------------0-----|-------------0-----|-------------0-----|-------------0-----|
--6-------8--------|--6-------8--------|--6-------8--------|--6-------8--------|
--7-------7-----7--|--7-------7-----7--|--7-------7-----7--|--7-------7-----7--|
--x----------------|--x----------------|--x----------------|--x----------------|
--x----6-----------|--x----6-----------|--x----6-----------|--x----6-----------|
--5----------------|--5----------------|--5----------------|--5----------------|


  E  E  E  E  E  E     Q    E  E  E  E     Q    E  E  E  E   
--0-----0--0--0--0--|-------0--0--0--0--|----------0--0--0--|
--0-----0--0--0--0--|-------0--0--0--0--|----------0--1--0--|
--4--6--6--6--6--6--|-------0--0--0--0--|--2----2--2--2--2--|
--0-----0-----0-----|--0----0-----0-----|--0----0-----0-----|
--0-----------------|--0----------------|--x----x-----x-----|
--5-----------------|--3----------------|--1----1-----1-----|


  Q    E  E  E  E     Q    E  E  E  E     Q    E  E  E  E   
----------0--0--0--|-------0--0--0--0--|-------0--0--0-----|
----------0--1--0--|-------0--0--0--0--|-------0--0--0-----|
--2----2--2--2--2--|--2----2--2--2--2--|--2----2--2--2-----|
--0----0-----0-----|--0----0-----0-----|--0----0-----0--0--|
--x----x-----x-----|--x----x-----x-----|--x----x-----x--0--|
--1----1-----1-----|--1----1-----1-----|--1----1-----1-----|


    E  E  E  E  E  E     E  E  E  E  E  E     E  E  E  E  E  E   
|---------0--0--3-----|--------0--0--3-----|--------0--0--3-----|
|------0--0--0--0--0--|-----0--0--0--0--0--|-----0--0--0--0--0--|
|*-----4--4--4--4--4--|-----4--4--4--4--4--|-----4--4--4--4--4--|
|*--------0-----0--0--|--------0-----0--0--|--------0-----0--0--|
|---0-----0-----0-----|--0-----0-----0-----|--0-----0-----0-----|
|---0-----------------|--0-----------------|--0-----------------|


  E  E  S S E  S S S S  4x  E  E  E  E  E  E     E  E  E  E  E  E   
--------0---0--0---0----||--------0--0--3-----|--------0--0--3-----|
-----0--0---0--0---0----||-----0--0--0--0--0--|-----0--0--0--0--0--|
-----4--0---0--0---0---*||-----4--4--4--4--4--|-----4--4--4--4--4--|
--------0------x-------*||--------0-----0--0--|--------0-----0--0--|
--0-----x------3-5-3-0--||--0-----0-----0-----|--0-----0-----0-----|
--0-----5-7-5-----------||--0-----------------|--0-----------------|


  E  E  E  E  E  E     E  E  E  E  E  E     E  E  E  E  E  E   
--------0--0--3-----|--------0--0--3-----|--0--0--0--0--0--0--|
-----0--0--0--0--0--|-----0--0--0--0--0--|--0--0--0--0--0--0--|
-----4--4--4--4--4--|-----4--4--4--4--4--|--0--0--0--0--0--0--|
--------0-----0--0--|--------0-----0--0--|--0--0--0--0--0--0--|
--0-----0-----0-----|--0-----0-----0-----|--x-----------------|
--0-----------------|--0-----------------|--5-----------------|


  E  E  E  E  E  E     E  E  E  E  E  E     E  E  E  E  E  E   
--3--3--3--3--3--3--|--5--5--5--5--5--5--|--3--3--3--3--3--3--|
--0--0--0--0--0--0--|--0--0--0--0--0--0--|--0--0--0--0--0--0--|
--0--0--0--0--0--0--|--0--0--0--0--0--0--|--0--0--0--0--0--0--|
--0--0--0--0--0--0--|--0--0--0--0--0--0--|--0--0--0--0--0--0--|
--x-----------------|--x-----------------|--x-----------------|
--5-----------------|--5-----------------|--5-----------------|


  E  E  E  E  E  E     E  E  E  E  E  E     Q    E  E  E  E   
--0--0--0--0--0--0--|-----0--0--0--0--0--|----------0--0--0--|
--0--0--0--0--0--0--|-----0--0--0--0--0--|----------0--1--0--|
--4--6--6--6--6--6--|-----0--0--0--0--0--|--2----2--2--2--2--|
--0--0--0--0--0--0--|-----0--0--0--0--0--|--0----0-----0-----|
--x-----------------|--0-----------------|--x----x-----x-----|
--5-----------------|--3-----------------|--1----1-----1-----|


  Q    E  E  E  E     Q    E  E  E  E     Q    E  E  E  E   
----------0--0--0--|-------0--0--0--0--|-------0--0--0--0--|
----------0--1--0--|-------0--0--0--0--|-------0--0--0--0--|
--2----2--2--2--2--|--2----2--2--2--2--|--2----2--2--2--2--|
--0----0-----0-----|--0----0-----0-----|--0----0-----0-----|
--x----x-----x-----|--x----x-----x-----|--x----x-----x-----|
--1----1-----1-----|--1----1-----1-----|--1----1-----1-----|


  E  E  E  E  E  E     E  E  E  E  E  E     E  E  E  E  E  E   
--------0--0--3-----|--------0--0--3-----|--------0--0--3-----|
-----0--0--0--0--0--|-----0--0--0--0--0--|-----0--0--0--0--0--|
-----4--4--4--4--4--|-----4--4--4--4--4--|-----4--4--4--4--4--|
--------0-----0--0--|--------0-----0--0--|--------0-----0--0--|
--0-----0-----0-----|--0-----0-----0-----|--0-----0-----0-----|
--0-----------------|--0-----------------|--0-----------------|


  E  E  E  E  E  E     E  E  E  E  E  E     E  E  E  E  E  E   
--------0--0--3-----|--0--0--0--0--0--0--|--3--3--3--3--3--3--|
-----0--0--0--0--0--|--0--0--0--0--0--0--|--0--0--0--0--0--0--|
-----4--4--4--4--4--|--0--0--0--0--0--0--|--0--0--0--0--0--0--|
--------0-----0--0--|--0--0--0--0--0--0--|--0--0--0--0--0--0--|
--0-----0-----0-----|--x-----------------|--x-----------------|
--0-----------------|--5-----------------|--5-----------------|


  E  E  E  E  E  E     E  E  E  E  E  E     E  E  E  E  E  E   
--5--5--5--5--5--5--|--3--3--3--3--3--3--|-----0-----0-----0--|
--0--0--0--0--0--0--|--0--0--0--0--0--0--|-----0-----0-----0--|
--0--0--0--0--0--0--|--0--0--0--0--0--0--|-----0-----0-----0--|
--0--0--0--0--0--0--|--0--0--0--0--0--0--|--------------------|
--x-----------------|--x-----------------|--------------0-----|
--5-----------------|--5-----------------|--3-----5-----------|


  E  E  E  E  E  E       E  E  E  E  E  E     E  E  E  E  E  E   
-----0-----0-----0--||------0--0--0--0--0--|-----0--0--0--0--0--|
-----0-----0-----0--||------1--1--1--1--1--|-----1--1--1--1--1--|
-----0-----0-----0--||*-----0--0--0--0--0--|-----0--0--0--0--0--|
--------------------||*--0-----------------|--------------------|
--3-----------0-----||---1-----------------|--x-----------------|
--------5-----------||---------------------|--3-----------------|


  E  E  E  E  E  E     E  E  E  E  E  E     E  E  E  E  E  E   
-----0--0--3--3--0--|--0--0--0--0--0--0--|-----0--0--0--1--0--|
-----0--0--0--0--0--|--3--3--3--3--3--3--|-----3--3--3--3--3--|
-----0--0--0--0--0--|--0--0--0--0--0--0--|-----2--2--2--2--2--|
--------------------|--------------------|--0-----------------|
--0-----------------|--0-----------------|--3-----------------|
--0-----------------|--0-----------------|--------------------|


  E  E  E  E  E  E     E  E  E  E  E  E     E  E  E  E  E  E   4x
-----0--0--0--1--0--|-----0-----0-----0--|-----0-----0-----0---||
-----3--3--3--3--3--|-----0-----0-----0--|-----0-----0-----0---||
-----2--2--2--2--2--|-----0-----0-----0--|-----0-----0-----0--*||
--0-----------------|--------------------|--------------------*||
--3-----------------|--------------0-----|--3-----------0------||
--------------------|--3-----5-----------|--------5------------||


   E  E  E  E  E  E     E  E  E  E  E  E     E  E  E  E  E  E   
---3--3--3--3--3--3--|--3--3--3--3--3--3--|--1--1--1--1--1--1--|
---0--0--0--0--0--0--|--0--0--0--0--0--0--|--3--3--3--3--3--3--|
*--4--4--4--4--4--4--|--4--4--4--4--4--4--|--2--2--2--2--2--2--|
*--0--0--0--0--0--0--|--0--0--0--0--0--0--|--0--0--0--0--0--0--|
---0-----------------|--0-----------------|--3-----------------|
---0-----------------|--0-----------------|--------------------|


  E  E  E  E  E  E     E  E  E  E  E  E     E  E  E  E  E  E   
--1--1--1--1--1--1--|--0--0--0--0--0--0--|--0--0--0--0--0--0--|
--3--3--3--3--3--3--|--0--0--0--0--0--0--|--0--0--0--0--0--0--|
--2--2--2--2--2--2--|--0--0--0--0--0--0--|--0--0--0--0--0--0--|
--0--0--0--0--0--0--|--0--0--0--0--0--0--|--0--0--0--0--0--0--|
--3-----------------|--0-----------------|--0-----------------|
--------------------|--3-----------------|--3-----------------|


  E  E  E  E  E  E     E  E  E  E  E  E                      
--1--1--1--1--1--1--|--1--1--1--1--1--1---||-------|-------||
--0--0--0--0--0--0--|--0--0--0--0--0--0---||-------|-------||
--0--0--0--0--0--0--|--0--0--0--0--0--0--*||-------|-------||
--0--0--0--0--0--0--|--0--0--0--0--0--0--*||-------|-------||
--0-----------------|--0------------------||-------|-------||
--3-----------------|--3------------------||-------|-------||




Duration Legend
---------------
W - whole
H - half
Q - quarter
E - 8th
S - 16th
T - 32nd
X - 64th
. - note dotted
|-n-|  - n-tuplets


Tablature Legend
----------------
L - tied note
x - dead note
g - grace note
(n) - ghost note
> - accentuded note
NH - natural harmonic
AH - artificial harmonic
TH - tapped harmonic
SH - semi harmonic
PH - pitch harmonic
h - hammer on
p - pull off
b - bend
br - bendRelease
pb - preBend
pbr - preBendRelease
brb - bendReleaseBend
\n/ - tremolo bar dip
\n - tremolo bar dive
-/n - tremolo bar Release up
/n\ - tremolo bar inverted dip
/n - tremolo bar return
-\n - tremolo bar Release down
S - shift slide
s - legato slide
/ -  slide into from below or out of upwards
\ -  slide into from above or out of downwards
~ - vibrato
W - wide vibrato
tr - trill
TP - tremolo picking
T - tapping
S - slap
P - pop
< - fade in
^ - brush up
v - brush down
Добавлено: 07.11.2013
Вам также может быть интересно:
Другие материалы по этой песне:

Страница создана 07.11.2013
http://primanota.ru/daniel-rossen/golden-mile-chords.htm
Привет, Гость.
Предлагаем пройти революционный курс по гитаре.
Подарок от PrimaNota.Ru, забирай!