PrimaNota.ru - самый крупный в мире бесплатный архив песенных текстов, аккордов, табулатур и нот


Daniel Purcell - Hornpipe - таба, видео

Регистрация Запомнить меня
Войти через:  Facebook Google Twitter Vk Yandex Mail.ru

Daniel Purcell - Hornpipe - таба, видео

Печатать
Просмотров: 97
Composer: Daniel Purcell
Key: D Minor
Time: 3/2



LEAD GUITAR (Harpsichord RH)



      Q     H         Q     Q     Q       Q     H         Q     Q     Q     
E||------------------------10----12----|--9--------------10----12----13----|
B||------------------10----------------|-------10--------------------------|
G||--10--------------------------------|-----------------------------------|
D||--------12--------------------------|-----------------------------------|
A||------------------------------------|-----------------------------------|
E||------------------------------------|-----------------------------------|


   Q     E   E   S   S   E   Q     Q     E   E   
--15----17--15--13h-15p-13--12----13----12--10--|
------------------------------------------------|
------------------------------------------------|
------------------------------------------------|
------------------------------------------------|
------------------------------------------------|


  E   E   Q     Q     Q     S   S   E  Q     
--9--10--12---------------------------------|
---------------10---------------------------|
---------------------12----10h-12p-10--9----|
--------------------------------------------|
--------------------------------------------|
--------------------------------------------|


   Q     H         Q     Q     Q       Q     H         Q     Q     Q     
------------------------10----12----|--9--------------10----12----13----|
------------------10----------------|-------10--------------------------|
--10--------------------------------|-----------------------------------|
--------12--------------------------|-----------------------------------|
------------------------------------|-----------------------------------|
------------------------------------|-----------------------------------|


   Q     E   E   Q     E   E  E   E   Q        Q     H        Q     Q     Q     
--15----13--12--13----12--10--9--10--12----|--------10--------9----10----------|
-------------------------------------------|--10-------------------------------|
-------------------------------------------|-----------------------------------|
-------------------------------------------|-----------------------------12----|
-------------------------------------------|-----------------------------------|
-------------------------------------------|-----------------------------------|


   Q     H         Q     Q     Q       Q     H         Q     Q     Q     
------------------------10----12----|--9--------------10----12----13----|
------------------10----------------|-------10--------------------------|
--10--------------------------------|-----------------------------------|
--------12--------------------------|-----------------------------------|
------------------------------------|-----------------------------------|
------------------------------------|-----------------------------------|


   Q     E   E   S   S   E   Q     Q     E   E   
--15----17--15--13h-15p-13--12----13----12--10--|
------------------------------------------------|
------------------------------------------------|
------------------------------------------------|
------------------------------------------------|
------------------------------------------------|


  E   E   Q     Q     Q     S   S   E  Q     
--9--10--12---------------------------------|
---------------10---------------------------|
---------------------12----10h-12p-10--9----|
--------------------------------------------|
--------------------------------------------|
--------------------------------------------|


   Q     H         Q     Q     Q       Q     H         Q     Q     Q     
------------------------10----12----|--9--------------10----12----13----|
------------------10----------------|-------10--------------------------|
--10--------------------------------|-----------------------------------|
--------12--------------------------|-----------------------------------|
------------------------------------|-----------------------------------|
------------------------------------|-----------------------------------|


   Q     E   E   Q     E   E  E   E   Q        Q     H        Q     Q     Q     
--15----13--12--13----12--10--9--10--12----|--------10--------9----10----------|
-------------------------------------------|--10-------------------------------|
-------------------------------------------|-----------------------------------|
-------------------------------------------|-----------------------------12----|
-------------------------------------------|-----------------------------------|
-------------------------------------------|-----------------------------------|


   Q     H         Q     Q     Q        Q     H         E   E   Q     Q     
--17--------------17----------------|----------------------12--13----------|
--------18--------------20----18----|--17--------------15------------13----|
------------------------------------|--------17----------------------------|
------------------------------------|--------------------------------------|
------------------------------------|--------------------------------------|
------------------------------------|--------------------------------------|


   Q     H         E   E   Q     Q        Q     E   E   Q     Q     Q     Q     
--------------------------------------|----------------------------------------|
--15----13----------------------------|----------------------13----------------|
------------------15--14--15----14----|--12----12--14--15----------14----------|
--------------------------------------|----------------------------------15----|
--------------------------------------|----------------------------------------|
--------------------------------------|----------------------------------------|


   Q     H         Q     Q     Q        Q     H         Q     Q     Q     
--------13--------------------------|--12----15--------------------------|
--13--------------------------------|------------------12----14----------|
------------------14----15----12----|------------------------------14----|
------------------------------------|------------------------------------|
------------------------------------|------------------------------------|
------------------------------------|------------------------------------|


   Q     H         H         Q        Q     H         Q     Q     Q     
--------18--------17--------------|------------------------------------|
--18------------------------15----|--------15--------14----15----------|
----------------------------------|--14--------------------------------|
----------------------------------|------------------------------12----|
----------------------------------|------------------------------------|
----------------------------------|------------------------------------|


   Q     H         Q     Q     Q        Q     H         E   E   Q     Q     
--17--------------17----15----13----|--12------------------12--13----------|
--------18--------------------------|--------13--------15------------13----|
------------------------------------|--------------------------------------|
------------------------------------|--------------------------------------|
------------------------------------|--------------------------------------|
------------------------------------|--------------------------------------|


   Q     H         E   E   Q     Q        Q     E   E   Q     Q     Q     Q     
--------------------------------------|----------------------------------------|
--15----13----------------------------|----------------------13----------------|
------------------15--14--15----14----|--12----12--14--15----------14----------|
--------------------------------------|----------------------------------15----|
--------------------------------------|----------------------------------------|
--------------------------------------|----------------------------------------|


   Q     H         Q     Q     Q        Q     H         Q     Q     Q     
--------13--------------------------|--12----15--------------------------|
--13--------------------------------|------------------12----14----------|
------------------14----15----12----|------------------------------14----|
------------------------------------|------------------------------------|
------------------------------------|------------------------------------|
------------------------------------|------------------------------------|


   Q     H         H         Q        Q     H         Q     Q     Q     
--------18--------17--------------|------------------------------------|
--18------------------------15----|--------15--------14----15----------|
----------------------------------|--14--------------------------------|
----------------------------------|------------------------------12----|
----------------------------------|------------------------------------|
----------------------------------|------------------------------------|


  W                H          
----------------------------||
----------------------------||
----------------------------||
--L-------------------------||
----------------------------||
----------------------------||










RHYTHM GUITAR (Harpsichord LH)



     H        H        H           H        H        Q    Q     
E||-----------------------------|------------------------------|
B||-----------------------------|------------------------------|
G||--2-----------------0--------|--2---------------------------|
D||--0--------------------------|-----------3--------2----0----|
A||-----------3--------1--------|--0---------------------------|
E||-----------------------------|------------------------------|


  H        H        H           W                H         
-----------------------------|----------------------------|
-----------------------------|----------------------------|
-----------2-----------------|--2-------------------------|
--------------------0--------|----------------------------|
--4--------------------------|-------------------0--------|
-----------------------------|----------------------------|


  H        H        H           H        H        Q    Q     
-----------------------------|------------------------------|
-----------------------------|------------------------------|
--2-----------------0--------|--2---------------------------|
--0--------------------------|-----------3--------2---------|
-----------3--------1--------|--0----------------------3----|
-----------------------------|------------------------------|


  Q    Q    Q    Q    Q    Q       Q    Q    Q    Q    H         
--------------------------------|-------------------------------|
--------------------------------|-------------------------------|
-------2--------------2----0----|-------0----2------------------|
------------0----3--------------|--3-------------------0--------|
--4-----------------------------|-----------------0-------------|
--------------------------------|-------------------------------|


  H        H        H           H        H        Q    Q     
-----------------------------|------------------------------|
-----------------------------|------------------------------|
--2-----------------0--------|--2---------------------------|
--0--------------------------|-----------3--------2----0----|
-----------3--------1--------|--0---------------------------|
-----------------------------|------------------------------|


  H        H        H           W                H         
-----------------------------|----------------------------|
-----------------------------|----------------------------|
-----------2-----------------|--2-------------------------|
--------------------0--------|----------------------------|
--4--------------------------|-------------------0--------|
-----------------------------|----------------------------|


  H        H        H           H        H        Q    Q     
-----------------------------|------------------------------|
-----------------------------|------------------------------|
--2-----------------0--------|--2---------------------------|
--0--------------------------|-----------3--------2---------|
-----------3--------1--------|--0----------------------3----|
-----------------------------|------------------------------|


  Q    Q    Q    Q    Q    Q       Q    Q    Q    Q    H         
--------------------------------|-------------------------------|
--------------------------------|-------------------------------|
-------2--------------2----0----|-------0----2------------------|
------------0----3--------------|--3-------------------0--------|
--4-----------------------------|-----------------0-------------|
--------------------------------|-------------------------------|


  H        H        H           H        H        H         
-----------------------------|-----------------------------|
-----------------------------|--1-----------------1--------|
-----------------------------|-----------3--------2--------|
--3-----------------3--------|-----------------------------|
-----------------------------|-----------------------------|
-----------1-----------------|-----------------------------|


  H        H        H           H        H        H         
-----------------------------|-----------------------------|
-----------1-----------------|--1--------------------------|
--3--------------------------|-----------------------------|
-----------2--------3--------|--------------------3--------|
-----------------------------|-----------3-----------------|
-----------------------------|-----------------------------|


  H        H        Q    Q       H        H        H         
------------------------------|-----------------------------|
--1---------------------------|-----------------------------|
--------------------0----2----|--3--------0--------2--------|
--3--------0------------------|-----------------------------|
------------------------------|-----------------------------|
------------------------------|-----------------------------|


  Q    Q    H        H           Q    Q    Q    Q    H         
-------1----0-----------------|-------------------------------|
--3---------1--------3--------|-------------------------------|
---------------------3--------|-------0----2------------------|
------------------------------|--3-------------------0--------|
------------------------------|-----------------0-------------|
------------------------------|-------------------------------|


  H        H        H           H        H        H         
-----------------------------|-----------------------------|
-----------------------------|--1-----------------1--------|
-----------------------------|-----------3--------2--------|
--3-----------------3--------|-----------------------------|
-----------------------------|-----------------------------|
-----------1-----------------|-----------------------------|


  H        H        H           H        H        H         
-----------------------------|-----------------------------|
-----------1-----------------|--1--------------------------|
--3--------------------------|-----------------------------|
-----------2--------3--------|--------------------3--------|
-----------------------------|-----------3-----------------|
-----------------------------|-----------------------------|


  H        H        Q    Q       H        H        H         
------------------------------|-----------------------------|
--1---------------------------|-----------------------------|
--------------------0----2----|--3--------0--------2--------|
--3--------0------------------|-----------------------------|
------------------------------|-----------------------------|
------------------------------|-----------------------------|


  Q    Q    H        H           Q    Q    Q    Q    H         
-------1----0-----------------|-------------------------------|
--3---------1--------3--------|-------------------------------|
---------------------3--------|-------0----2------------------|
------------------------------|--3-------------------0--------|
------------------------------|-----------------0-------------|
------------------------------|-------------------------------|


  W                H          
----------------------------||
----------------------------||
----------------------------||
--L-------------------------||
----------------------------||
----------------------------||




Duration Legend
---------------
W - whole
H - half
Q - quarter
E - 8th
S - 16th
T - 32nd
X - 64th
. - note dotted
|-n-|  - n-tuplets


Tablature Legend
----------------
L - tied note
x - dead note
g - grace note
(n) - ghost note
> - accentuded note
NH - natural harmonic
AH - artificial harmonic
TH - tapped harmonic
SH - semi harmonic
PH - pitch harmonic
h - hammer on
p - pull off
b - bend
br - bendRelease
pb - preBend
pbr - preBendRelease
brb - bendReleaseBend
\n/ - tremolo bar dip
\n - tremolo bar dive
-/n - tremolo bar Release up
/n\ - tremolo bar inverted dip
/n - tremolo bar return
-\n - tremolo bar Release down
S - shift slide
s - legato slide
/ -  slide into from below or out of upwards
\ -  slide into from above or out of downwards
~ - vibrato
W - wide vibrato
tr - trill
TP - tremolo picking
T - tapping
S - slap
P - pop
< - fade in
^ - brush up
v - brush down
Добавлено: 06.04.2012
Другие материалы по этой песне:

Страница создана 03.03.2012
http://primanota.ru/daniel-purcell/hornpipe-chords.htm
Привет, Гость.
Предлагаем пройти революционный курс по гитаре.
Подарок от PrimaNota.Ru, забирай!