PrimaNota.ru - самый крупный в мире бесплатный архив песенных текстов, аккордов, табулатур и нот


Daniel Lanois - O Marie - текст песни, таба, видео

Регистрация Запомнить меня
Войти через:  Facebook Google Twitter Vk Yandex Mail.ru

Daniel Lanois - O Marie - текст песни, таба, видео

Печатать
Просмотров: 159
Уроки эстрадного вокала в Санкт-Петербурге
Авторы музыки: Daniel Lanois
Авторы текста: Daniel Lanois
O Marie
Daniel Lanois- tabbed from live performance
Tabbed by Rob Novak, rizzoraab@yahoo.com

Tabbed from live performace, apparently Daniel plays
it in 
a different key on the actual album.

The intro just sets the rhythm, and the bass note can
be played 
continuosly throughout the tune.

The main riff notes follow the lyrics, so it shouldn't
be too
difficult to figure- I tried my best to get the
measures all spaced
correctly, but there may be time errors. Just listen
to a recording 
of the song, the melody is nice and simple.


INTRO- 
 --------------|--------------|
 --------------|--------------|
 --------------|--------------|
 --------------|--------------|
 ---7h------7h-|---7h------7h-|
 -0-------0----|-0-------0----|

Main Riff-

--------------|-----------|--------------|-----------|

--------------|-----------|--------------|-----------|

--------------|-----------|--------------|-----------|

--------------|-----------|----9-9--11-9-|7-9h-11-9h-|

-7-11-11--9-7-|--7-7~9-7h-|-11-----------|-----------|

--------------|9----------|--------------|-----------|


--------------|--------------|----------|-------------

--------------|--------------|----------|-------------

------9-9-----|--------------|----------|-------------

-9-11-----11h-|-9----9-------|----------|-7-----------

--------------|---11---11-7h-|------7h--|---11-7\-----

--------------|--------------|--7~9-----|--------9~11/

|---
|---
|---
|---
|7h-
|---

__________________________________
     
Добавлено: 03.08.2013
Другие материалы по этой песне:

Страница создана 26.02.2012
http://primanota.ru/daniel-lanois/o-marie-chords.htm
Привет, Гость.
Предлагаем пройти революционный курс по гитаре.
Подарок от PrimaNota.Ru, забирай!