PrimaNota.ru - самый крупный в мире бесплатный архив песенных текстов, аккордов, табулатур и нот


Daniel Lakens - To Long For - таба, видео

Регистрация Запомнить меня
Войти через:  Facebook Google Twitter Vk Yandex Mail.ru

Daniel Lakens - To Long For - таба, видео

Печатать
Просмотров: 108
Tabbed by Beltesassar, From the Album "Mind Fashion Boutique" by Daniel 
Lakens



TO LONG FOR

MUSIC & LYRICS: DANIEL LAKENS

CAPO 2nd FRET

VERSE:

  Am           G  (chords refer to capoed guitar)
e|---0----0---|---3----3---|
B|---1----1---|---3----3---|
G|------------|------------|
D|------------|------------|
A|-0----0-----|-2----2-----|
E|------------|------------|
   Played stacato.

  Am           G
e|---0----0---|------3~~--0|
B|---1----1---|------3~~--0|
G|------------|------0~~---|
D|------------|------------|
A|-0----0-----|-2----------|
E|------------|------------|

I am sitting ...

PRE-CHORUS

  Am           G
e|------0--0--|------3--3--|
B|------1--1--|------3--3--|
G|------2--2--|------0--0--|
D|------2-----|------0-----|
A|-0--0-0-----|-2--2-2-----|
E|------------|------------|

Everything ...

VERSE

PRE-CHORUS

CHORUS

  C            G            Am           Em
e|------------|-----3--3-0-|-----0--0-0-|----------0-|
B|-----1--1-0-|-----3--3-0-|-----1--1-0-|------0-0-0-|
G|-----0--0-0-|-----0--0-0-|-----2--2-0-|------0-0---|
D|-----2--2-0-|-----0--0---|-2---2--2---|------2-----|
A|-3---3------|--2--2------|-0---0------|--X---2-----|
E|------------|-3---3------|------------|-0----0-----|

And I know ...

VERSE (1st time instrumental)

PRE-CHORUS

CHORUS
     
Добавлено: 27.07.2013
Другие материалы по этой песне:
  • Аккорды и текст

Страница создана 27.07.2013
http://primanota.ru/daniel-lakens/to-long-for-chords.htm
Привет, Гость.
Предлагаем пройти революционный курс по гитаре.
Подарок от PrimaNota.Ru, забирай!