PrimaNota.ru - самый крупный в мире бесплатный архив песенных текстов, аккордов, табулатур и нот


Daniel Lakens - On A Mission - таба, бас-таба, видео

Регистрация Запомнить меня
Войти через:  Facebook Google Twitter Vk Yandex Mail.ru

Daniel Lakens - On A Mission - таба, бас-таба, видео

Печатать
Просмотров: 108
Tabbed by Beltesassar, From the Album "Mind Fashion Boutique" by Daniel 
Lakens



ON A MISSION

MUSIC & LYRICS: DANIEL LAKENS

GUITAR TAB

INTRO

  E
e|----------------|----------------|
B|----------------|----------------|
G|----------------|----------------|
D|----------------|----------------|
A|----------------|----------------|
E|-0-0-0-0-0-0-0-0|-0-0-0-0-0-0-0-0|

VERSE

   C            Am
e|------------|------------|
B|-----1--1-1X|-1---1------|
G|-----0--0-0X|-2-X-2-----2|
D|-----2--2-2X|-2-X-2-2-2-2|
A|-3-3-3-----X|-0-X-0-0-0-0|
E|------------|------------|

   G
e|----------------|----------------|
B|-------3--------|-------3--------|
G|-0-----0--------|-0-----0--------|
D|-0---X-0--0-0-X-|-0---X-0--0-0-X-|
A|-2-2-X-2--2-2-X-|-2-2-X-2--2-2-X-|
E|-3-3-X-3--3-3-X-|-3-3-X-3--3-3-X-|



   F
e|------------|------------|
B|-1----------|-1----------|
G|-2----------|-2--------2-|
D|-3--3-3---3-|-3--3-3---3-|
A|-3--3-3---3-|-3--3-3---3-|
E|-1--1-1---1-|-1--1-1---1-|

know______   ...

   G
e|------------|------------|
B|-3----------|-3----------|
G|-0----------|-0--------0-|
D|-0--0-0---0-|-0--0-0---0-|
A|-2--2-2---2-|-2--2-2---2-|
E|-3--3-3---3-|-3--3-3---3-|



   Am           F
e|------------|------------|
B|-1----1----1|-1----------|
G|-2----2----2|-2----2-----|
D|-2--2-2--2-2|-3----3----3|
A|-0--0-0--0-0|-3--3-3--3-3|
E|------------|-1--1-1--1-1|



VERSE (1st time instrumental)



CHORUS

BRIDGE

   C               G
e|--------0------|---------------|
B|--------1--1---|---------------|
G|--------0--0---|--------0------|
D|-2-2-2--2--2-2-|--------0----0-|
A|-3-3-3--3--3-3-|-2-2-2--2--2-2-|
E|---------------|-3-3-3--3--3-3-|


   F               G
e|---------------|---------------|
B|---------------|---------------|
G|--------2------|--------0------|
D|--------3----3-|--------0----0-|
A|-3-3-3--3--3-3-|-2-2-2--2--2-2-|
E|-1-1-1--1--1-1-|-3-3-3--3--3-3-|


VERSE (instrumental)

CHORUS.
     
Добавлено: 07.06.2013
Другие материалы по этой песне:
  • Аккорды и текст

Страница создана 11.04.2012
http://primanota.ru/daniel-lakens/on-a-mission-chords.htm
Привет, Гость.
Предлагаем пройти революционный курс по гитаре.
Подарок от PrimaNota.Ru, забирай!