PrimaNota.ru - самый крупный в мире бесплатный архив песенных текстов, аккордов, табулатур и нот


Daniel Lakens - Mind Fashion Boutique - таба

Регистрация Запомнить меня
Войти через:  Facebook Google Twitter Vk Yandex Mail.ru

Daniel Lakens - Mind Fashion Boutique - таба

Печатать
Просмотров: 89
Tabbed by Beltesassar, From the Album "Mind Fashion Boutique" by Daniel 
Lakens



MIND FASHION BOUTIQUE

MUSIC & LYRICS: DANIEL LAKENS


  E7                    C9       C
e|----7--7-7----7---7-|--------------------|
B|----8--8-8----8-7-8-|-----3--X-----1-----|
G|----7-7----7--7-9-7-|-----0--X-------0XX-|
D|----9------9----7---|---4---4X---2----XX-|
A|-7------------------|-5--------3------XX-|
E|--------------------|--------------------|

VERSE 1

VERSE 2

CHORUS

   G
e|----3------------|-----------0-0----|
B|----3---------7--|-----------0-0----|
G|----4---------7--|-----------0-0----|
D|-5--5-5X------7--|-2-----2---2------|
A|-5--5-5X-5/9--9--|-2-----2-2-2---2--|
E|-3--3-3X-3/7--7--|-0---0-0-0-----0--|
  (2 times)

e|----3------------|------------------|
B|----3---------7--|---9-----7-----7--|
G|----4---------7--|-9-9-XX--7-7-7-7--|
D|-5--5-5X------7--|-9-9-XX--7-7-7-7--|
A|-5--5-5X-5/9--9--|-7-7-XX--5-5-5-5--|
E|-3--3-3X-3/7--7--|------------------|

e|----3------------|-----------0-0----|
B|----3---------7--|-----------0-0----|
G|----4---------7--|-----------0-0----|
D|-5--5-5X------7--|-2-----2---2------|
A|-5--5-5X-5/9--9--|-2-----2-2-2---2--|
E|-3--3-3X-3/7--7--|-0---0-0-0-----0--|

You took one look, ....

VERSE 3

CHORUS

BRIDGE

   C                 Bm                E7
e|-----------------|-----------------|-7-7-7-7-7-7-7-7-|
B|-1-1-1-1-1-1-1-1-|-----------------|-8-8-8-8-8-8-8-8-|
G|-0-0-0-0-0-0-0-0-|-7-7-7-7-7-7-7-7-|-7-7-7-7-7-7-7-7-|
D|-2-2-2-2-2-2-2-2-|-7-7-7-7-7-7-7-7-|-9-9-9-9-9-9-9-9-|
A|-3-3-3-3-3-3-3-3-|-9-9-9-9-9-9-9-9-|-7-7-7-7-7-7-7-7-|
E|-X-X-X-X-X-X-X-X-|-7-7-7-7-7-7-7-7-|-----------------|

Please just open ...

CHORUS
     
Добавлено: 16.07.2013
Вам также может быть интересно:
Другие материалы по этой песне:
  • Аккорды и текст

Страница создана 16.07.2013
http://primanota.ru/daniel-lakens/mind-fashion-boutique-chords.htm
Привет, Гость.
Предлагаем пройти революционный курс по гитаре.
Подарок от PrimaNota.Ru, забирай!