PrimaNota.ru - самый крупный в мире бесплатный архив песенных текстов, аккордов, табулатур и нот


Daniel Lakens - Listen - таба, бас-таба, видео

Регистрация Запомнить меня
Войти через:  Facebook Google Twitter Vk Yandex Mail.ru

Daniel Lakens - Listen - таба, бас-таба, видео

Печатать
Просмотров: 88
Tabbed by Beltesassar, From the Album "Mind Fashion Boutique" by Daniel 
Lakens


LISTEN

MUSIC & LYRICS: DANIEL LAKENS

GUITAR TAB

INTRO

   Bm           A            G                    A
e|------------|---0--------|------------|------------|
B|-3-3---5-3--|-2-2---3-2--|------------|------------|
G|-4-4------4-|-2-2------2-|------------|------------|
D|-4-4-4-----0|-2---2-----2|-5-5----5---|-5----5-/7--|
A|-2----------|------------|-5-5-5--5---|-5----5-/7--|
E|------------|------------|-3-3-0--3---|---0--3-/5--|

  Bm           A            G
e|------------|---0--------|------------|------------|
B|-3-3---5-3--|-2-2---3-2--|------------|------------|
G|-4-4------4-|-2-2------2-|------------|------------|
D|-4-4-4-----0|-2---2-----2|-5-5----5---|-----5-XX---|
A|-2----------|------------|-5-5-5--5---|-----5-XX---|
E|------------|------------|-3-3-0--3---|-----3-XX---|

VERSE 1

   Bm           A            G                   A
e|-2----2----0|---0-----X0-|------------|------------|
B|-3----3--3-0|---2-----X0-|------------|------------|
G|-4----4--4-0|---2--------|------------|-4----------|
D|-4----4--4--|-------0----|-5-5---5----|-5------7---|
A|-2----------|-0----------|-5-5-5-5----|-----5-/7---|
E|------------|------------|-3-3-0-3----|---0-3-/5---|


CHORUS

   B5           A5           G5
e|------------|------------|------------|------------|
B|------------|------------|------------|------------|
G|------------|------------|------------|------------|
D|-9-9--XX-XX-|-7-7-XX-XX--|-5-----5----|---5---5-7--|
A|-9-9--XX-XX-|-7-7-XX-XX--|-5-5---5----|---5---5-7--|
E|-7-7--XX-XX-|-5-5-XX-XX--|-3-3-0-3----|-----0-3-5--|


VERSE 3


CHORUS.

BRIDGE

e|-2----------|-0----0-----|------------|------------|
B|-3----------|-2------2---|------------|------------|
G|-4----------|-2--------2-|------------|------------|
D|-4----------|-2----------|-5---5------|-5-------5/7|
A|-2----------|-0----------|-5---5--5-5-|-5---5---5/7|
E|------------|------------|-3-0-3--3-3-|-3-0-3-0-3/5|

e|-2----------|-0----0-----|------------|------------|
B|-3----------|-2------2---|------------|------------|
G|-4----------|-2--------2-|------------|------------|
D|-4----------|-2----------|-5---5------|-5-------5-5|
A|-2----------|-0----------|-5---5--5-5-|-5---5-5-5-5|
E|------------|------------|-3-0-3--3-3-|-3-0-3-3-3-3|

e|------------|------------|
B|------------|------------|
G|------------|------------|
D|-7---------7|-7---------7|
A|-7----7--7-7|-7----7----7|
E|-5--0-5--0-5|-5--0-5--0-5|



CHORUS (1/2 time instrumental)

CHORUS WITH BASS SOLO

CHORUS

CHORUS WITH GUITAR SOLO.
     
Добавлено: 05.10.2013
Другие материалы по этой песне:
  • Аккорды и текст

Страница создана 07.07.2012
http://primanota.ru/daniel-lakens/listen-chords.htm
Привет, Гость.
Предлагаем пройти революционный курс по гитаре.
Подарок от PrimaNota.Ru, забирай!