PrimaNota.ru - самый крупный в мире бесплатный архив песенных текстов, аккордов, табулатур и нот


Daniel Lakens - Blessed Sleep - таба, бас-таба, видео

Регистрация Запомнить меня
Войти через:  Facebook Google Twitter Vk Yandex Mail.ru

Daniel Lakens - Blessed Sleep - таба, бас-таба, видео

Печатать
Просмотров: 119
Уроки эстрадного вокала в Санкт-Петербурге
Tabbed by Beltesassar, From the Album "Mind Fashion Boutique" by Daniel 
Lakens



BLESSED SLEEP

MUSIC & LYRICS: DANIEL LAKENS

GUITAR TAB

VERSE

   Am          G            Am          G
e|-0-0----0--1/3-3-5--3---|-0-0----0--1/3-3-5--3---|
B|-1---1---1-1/3--3----3-0|-1---1---1-1/3--3----3-0|
G|-2--2------0------------|-2--2------0------------|
D|-2----------------------|-2----------------------|
A|------------------------|------------------------|
E|------------------------|------------------------|

   Am          G            F          E7
e|-0-0----0--1/3-3-3--3---|-1-1---1----0----0------|
B|-1---1---1-1/3--3----3-0|-1---1--1---0--0--0-----|
G|-2--2------0------------|-2--2----------1----1---|
D|-2----------------------|-3--------0----0--------|
A|------------------------|----------2-------------|
E|------------------------|------------------------|

Hey man ...

When things ...

  C     Cadd9   Am
e|------------|---0--------|
B|---1-----3--|-----0--1---|
G|----0----0--|-2--2----2--|
D|--2----4----|-2--------2-|
A|-3---3/5----|-0----------|
E|------------|------------|
  (4 TIMES)

All that ...

Help me ...

CHORUS

  C      Cadd9  Am
e|------------|---0--------|
B|---1-----3--|-----0--1---|
G|----0----0--|-2--2----2--|
D|--2----4----|-2--------2-|
A|-3---3/5----|-0----------|
E|------------|------------|
  (2 TIMES)

  C      Cadd9  G    F
e|------------|---3--------|
B|---1-----3--|---3--------|
G|----0----0--|---0-----2--|
D|--2----4----|-0----3---3-|
A|-3---3/5----|-2----3----3|
E|------------|-3----1-----|

I wish ...
  E7           Am
e|------------|---0--------|
B|------------|-----0--1---|
G|---1----1---|-2--2----2--|
D|----0-0--0-0|-2--------2-|
A|-2----2--- 2|-0----------|
E|-0----------|------------|

Turn ...

  E7           Am
e|------------|-0~~~~------|
B|------------|-1~~~~------|
G|---1----1---|-2~~~~------|
D|----0-0--0-0|-2~~~~------|
A|-2----2--- 2|-0~~~~------|
E|-0----------|------------|
Wish I ..

VERSE (1st time instrumental)

CHORUS


INTERMEZZO

   Am  Asus4  Am    Am/D Am    Asus4
e|----------------|-0-0---0--------|
B|-1-1-0-0----1-1-|-3-3-1-1----0-0-|
G|-2-2-2-2----2-2-|-2-2-2-2----2-2-|
D|-2-2-2-2----2-2-|-2-2-2-2----2-2-|
A|-----0-0--------|----------------|
E|----------------|----------------|
  (3 TIMES)

e|----------------|-0-0---0--------|
B|-1-1-0-0----1-1-|-3-3-1-1---0-0-0|
G|-2-2-2-2----2-2-|-2-2-2-2---0-2-0|
D|-2-2-2-2----2-2-|-2-2-2-2---0-2-0|
A|-----0-0--------|---------------0|
E|----------------|----------------|
  (4th time only)

BRIDGE

   C    G       F
e|----00--3-3-|------------|
B|-1-111--3-3-|------------|
G|-0-0000-0---|-2-------2-0|
D|-2-2--0-0---|-3---3---3-0|
A|-3-3--2-2---|-3--33--33-0|
E|------3-----|-1--11--11-0|

    C       G           F
I'm waiting ....
       C         G         F
'cause then ...
      C         G         F
but I know ...

  E7           (guitar 1)    (guitar 2)
e|------------|*|----0-0-0-0-|*|------------|
B|------------|*|----0-0-0-0-|*|-7/9-9-7/9-9|
G|-1--1-1--1--|*|-1--1-1-1-1-|*|-7/9-9-7/9-9|
D|-0--0-0--0--|*|-0--0-0-0---|*|-7/9-9-7/9-9|
A|-2--2-2--2--|*|-2--2-------|*|-5/7-7-5/7-7|
E|-0--0----0--|*|-0----------|*|------------|
  last________

CHORUS

  E7    F      E7    F      E7    F
e|------------|------------|------------|
B|--------1---|--------1---|--------1---|
G|-1-1--2-2---|-1-1--2-2---|-1-1--2-2---|
D|-0-0--3-3-3-|-0-0--3-3-3-|-0-0--3-3-3-|
A|-2-2--3-3-3-|-2-2--3-3-3-|-2-2--3-3-3-|
E|-0-0--1-1-1-|-0-0--1-1-1-|-0-0--1-1-1-|

     E&      F          E7      F
Wish I ....
     E7      F       Am
Wish I ...

INTERMEZZO.

     
Добавлено: 08.07.2013
Другие материалы по этой песне:
  • Аккорды и текст

Страница создана 23.07.2012
http://primanota.ru/daniel-lakens/blessed-sleep-chords.htm
Привет, Гость.
Предлагаем пройти революционный курс по гитаре.
Подарок от PrimaNota.Ru, забирай!