PrimaNota.ru - самый крупный в мире бесплатный архив песенных текстов, аккордов, табулатур и нот


Daniel Lakens - A Simple Man - таба, видео

Регистрация Запомнить меня
Войти через:  Facebook Google Twitter Vk Yandex Mail.ru

Daniel Lakens - A Simple Man - таба, видео

Печатать
Просмотров: 89
Tabbed by Beltesassar, From the Album "Mind Fashion Boutique" by Daniel 
Lakens.


A SIMPLE MAN

MUSIC & LYRICS: DANIEL LAKENS

BASS TAB

VERSE & CHORUS

   Bm           D            Bm           D
G|------------|------------|------------|------------|
D|-9--8--7----|------------|------------|------------|
A|----------9-|-8--7-------|------------|------5-----|
E|------------|-------9--8-|-7--7--7--5-|-7----------|

   Bm           D            Bm           D
G|------------|------------|------------|------------|
D|-9--8--7----|------------|------------|------------|
A|----------9-|-8--7-------|------------|------5-----|
E|------------|-------9--8-|-7--7--7--5-|-7-------7--|

VERSE INSTRUMENTAL

G|------------|------------|------------|------------|
D|------------|------------|------------|------------|
A|------------|------------|------------|------------|
E|-7-------7//|-10---10----|-7-------7//|-10---10----|

BRIDGE

   Bm           D            E            Bm
G|------------|------------|------------|------------|
D|-------4----|-------7----|-------9----|-------4----|
A|-2--2-----2-|-5--5-----5-|-7--7-----7-|-2--2-----2-|
E|------------|------------|------------|------------|

   Bm           D            E
G|------------|------------|------------|------------|
D|-------4----|-------7----|-------9----|-9-----9----|
A|-2--2-----2-|-5--5-----5-|-7--7-----7-|----7-----7-|
E|------------|------------|------------|------------|

OUTRO

G|------------|------------|------------|------------|
D|------------|------------|------------|------------|
A|------------|------------|------------|------------|
E|-7--7--7--5-|-7----------|--////19~~~~|------------|
     
Добавлено: 22.11.2013
Другие материалы по этой песне:
  • Аккорды и текст

Страница создана 06.09.2013
http://primanota.ru/daniel-lakens/a-simple-man-chords.htm
Привет, Гость.
Предлагаем пройти революционный курс по гитаре.
Подарок от PrimaNota.Ru, забирай!