PrimaNota.ru - самый крупный в мире бесплатный архив песенных текстов, аккордов, табулатур и нот


Daniel Ingram - Perfect Day For Fun - Mlp Rainbow Rocks Short - таба, видео

Регистрация Запомнить меня
Войти через:  Facebook Google Twitter Vk Yandex Mail.ru

Daniel Ingram - Perfect Day For Fun - Mlp Rainbow Rocks Short - таба, видео

Печатать
Просмотров: 78
-------------------------------------------------------------------------------
                Perfect Day For Fun - MLP "Rainbow Rocks" Short
-------------------------------------------------------------------------------
Tabbed by: I am Wolverine
E-mail: millegas08@yahoo.com

Tuning: Standard

INTRO/SOLO

e|---------------------------------------------------------------------------|
B|-------5------8855------5-------5-------5------8855------5-----------------|
G|--/5--7--7-5------7-5-57--7-7--7--7-5--7--7-5------7-5-57--7-7--78-7-(5)---|
D|---------------------------------------------------------------------------|
A|---------------------------------------------------------------------------|
E|---------------------------------------------------------------------------|


VERSE
    1+2+3+4+    quickly muted strums are on 1, 2, and the + of 3
P.M. . . . . . . . . . . .          P.M. . . . . . . . . . . . x
e|-------------------------------------------------------------x-------------|
B|-------------------------------------------------------------x-------------|
G|--5-5--5------------------8-8-7-7-5-5--5---------------------x-------------|
D|--5-5--5--5-5--5--7-7--7--8-8-7-7-5-5--5--5-5--5---7-7--7--7-x-------------|
A|--3-3--3--5-5--5--7-7--7--6-6-5-5-3-3--3--5-5--5---7-7--7--7-x-------------|
E|----------3-3--3--5-5--5------------------3-3--3---5-5--5--5-x-------------|


CHORUS

e|---------------------------------------------------------------------------|
B|---------------------------------------------------------------------------|
G|--5-5-5-5-------------------------5-5-5-5----------------------------------|
D|--5-5-5-5-5-5-5-5-7-7-7-7-3-3-3-3-5-5-5-5-5-5-5-5-7-7-7-7-3-3-5-5----------|
A|--3-3-3-3-5-5-5-5-7-7-7-7-3-3-3-3-3-3-3-3-5-5-5-5-7-7-7-7-3-3-5-5----------|
E|----------3-3-3-3-5-5-5-5-1-1-1-1---------3-3-3-3-5-5-5-5-1-1-3-3----------|


VERSE

CHORUS

INTRO/SOLO 2

e|---------------------------------------------------------------------------|
B|-------5------8855------5-------5-------5------8855------5-------5---------|
G|---5--7--7-5------7-5-57--7-7--7--7-5--7--7-5------7-5-57--7-7--7--7-(5)---|
D|---------------------------------------------------------------------------|
A|---------------------------------------------------------------------------|
E|---------------------------------------------------------------------------|

VERSE

CHORUS 2

e|---------------------------------------------------------------------------|
B|---------------------------------------------------------------------------|
G|--7-7-7-7-------------------------7-7-7-7----------------------------------|
D|--7-7-7-7-7-7-7-7-9-9-9-9-5-5-5-5-7-7-7-7-7-7-7-7-9-9-9-9-5-5-7-7----------|
A|--5-5-5-5-7-7-7-7-9-9-9-9-5-5-5-5-5-5-5-5-7-7-7-7-9-9-9-9-5-5-7-7----------|
E|----------5-5-5-5-7-7-7-7-3-3-3-3---------5-5-5-5-7-7-7-7-3-3-5-5----------|

CHORUS 2

INTRO/SOLO 3

e|---------------------------------------------------------------------------|
B|------7------101077------7-------7-----------------------------------------|
G|--7--9--9-7--------9-7--9--7-9--9--9-7-------------------------------------|
D|---------------------------------------------------------------------------|
A|---------------------------------------------------------------------------|
E|---------------------------------------------------------------------------|


************************************

| /   slide up
| \   slide down
| h   hammer-on
| p   pull-off
| ~   vibrato
| +   harmonic
| x   Mute note
| b   Bend
| pb  Pre-bend
| br  Bend release
| pbr Pre-bend release
| brb Bend release bend

************************************
Добавлено: 29.03.2016
Другие материалы по этой песне:
  • Аккорды и текст

Страница создана 29.03.2016
http://primanota.ru/daniel-ingram/perfect-day-for-fun-mlp-rainbow-rocks-short-chords.htm
Привет, Гость.
Предлагаем пройти революционный курс по гитаре.
Подарок от PrimaNota.Ru, забирай!