PrimaNota.ru - самый крупный в мире бесплатный архив песенных текстов, аккордов, табулатур и нот


Daniel Dobbs - Dive - таба, видео

Регистрация Запомнить меня
Войти через:  Facebook Google Twitter Vk Yandex Mail.ru

Daniel Dobbs - Dive - таба, видео

Печатать
Просмотров: 138
Уроки эстрадного вокала в Санкт-Петербурге
'Dive' by Daniel Dobbs. 
YouTube: https://www.youtube.com/watch?v=l30Dkw0VIj8
Bandcamp: http://danieldobbs.bandcamp.com/album/thecabin 

(I couldn't be bothered to make it accurate enough in terms of the strumming pattern. 
Just listen to how it goes, you butt. Also, I didn't include the bridge/solo bit because
I don't know it so you're gonna have do make to without it. Sorry 'bout that one.)

Open G Tuning, DGDGBd
Capo on 3

*INTRO*

d|------0-----------------------------0--------------0-------0---------------|
B|------0-----------------------------0--------------0-------0---------------|
G|------0-----------------------------0--------------2-------4---------------|
D|------0-----------------------------0--------------0-------0---------------|
G|------0-----------------------------0--------------2-------4---------------|
D|------0-----------------------------0--------------0-------0---------------|


d|------0-----------------------------0--------------0-------0---------------|
B|------0-----------------------------0--------------0-------0---------------|
G|------4/5---------------------------5--------------4-------2---------------|
D|------0-----------------------------0--------------0-------0---------------|
G|------4/5---------------------------5--------------4-------2---------------|
D|------0-----------------------------0--------------0-------0---------------|


d|------0-----------------------------0--------------0-------0---------------|
B|------0-----------------------------0--------------0-------0---------------|
G|------0-----------------------------0--------------2-------4---------------|
D|------0-----------------------------0--------------0-------0---------------|
G|------0-----------------------------0--------------2-------4---------------|
D|------0-----------------------------0--------------0-------0---------------|


d|------0-----------------------------0--------------------------------------|
B|------0-----------------------------0--------------------------------------|
G|------4/5---------------------------5/7------------------------------------|
D|------0-----------------------------0--------------------------------------|
G|------4/5---------------------------5/7------------------------------------|
D|------0-----------------------------0--------------------------------------|

d|------0-----------------------------0--------------0-------0---------------|
B|------0-----------------------------0--------------0-------0---------------|
G|------0-----------------------------0--------------2-------4---------------|
D|------0-----------------------------0--------------0-------0---------------|
G|------0-----------------------------0--------------2-------4---------------|
D|------0-----------------------------0--------------0-------0---------------|


d|------0-----------------------------0--------------0-------0---------------|
B|------0-----------------------------0--------------0-------0---------------|
G|------4/5---------------------------5--------------4-------2---------------|
D|------0-----------------------------0--------------0-------0---------------|
G|------4/5---------------------------5--------------4-------2---------------|
D|------0-----------------------------0--------------0-------0---------------|


d|------0-----------------------------0--------------0-------0---------------|
B|------0-----------------------------0--------------0-------0---------------|
G|------0-----------------------------0--------------2-------4---------------|
D|------0-----------------------------0--------------0-------0---------------|
G|------0-----------------------------0--------------2-------4---------------|
D|------0-----------------------------0--------------0-------0---------------|


d|------0-----------------------------0--------------------------------------|
B|------0-----------------------------0--------------------------------------|
G|------2-----------------------------0--------------------------------------|
D|------0-----------------------------0--------------------------------------|
G|------2-----------------------------0--------------------------------------|
D|------0-----------------------------0--------------------------------------|


d|------0--------------------------------------------------------------------|
B|------0--------------------------------------------------------------------|
G|------0--------------------------------------------------------------------|
D|------0--------------------------------------------------------------------|
G|------0--------------------------------------------------------------------|
D|------0--------------------------------------------------------------------|


*VERSE* (All verses are the same)

d|------0--0--x--0--0--0--x--0--x--0--x--0------------0----------------------|
B|------0--0--x--0--0--0--x--0--x--0--x--0------------0----------------------|
G|------0--0--x--0--0--0--x--0--x--0--x--0------------2/4\2p0----------------|
D|------0--0--x--0--0--0--x--0--x--0--x--0------------0----------------------|
G|------0--0--x--0--0--0--x--0--x--0--x--0------------2/4\2p0----------------|
D|------0--0--x--0--0--0--x--0--x--0--x--0------------0----------------------|


d|------0--x--0--0--x--0----0------------------------------------------------|
B|------0--x--0--0--x--0----0------------------------------------------------|
G|------0--x--0--0--x--5/7--7------------------------------------------------|
D|------0--x--0--0--x--0----0------------------------------------------------|
G|------0--x--0--0--x--5/7--7------------------------------------------------|
D|------0--x--0--0--x--0----0------------------------------------------------|


d|------0-----------------------------0--------------------------------------|
B|------5-----------------------------3--------------------------------------|
G|------0-----------------------------0--------------------------------------|
D|------0-----------------------------0--------------------------------------|
G|------4-----------------------------4--------------------------------------|
D|------5-----------------------------5--------------------------------------|


d|------0--------------------------------------------------------------------|
B|------3--------------------------------------------------------------------|
G|------0--------------------------------------------------------------------|
D|------4--------------------------------------------------------------------|
G|------2--------------------------------------------------------------------|
D|------0--------------------------------------------------------------------|

d|------0--0--x--0--0--0--x--0--x--0--x--0------------0----------------------|
B|------0--0--x--0--0--0--x--0--x--0--x--0------------0----------------------|
G|------0--0--x--0--0--0--x--0--x--0--x--0------------2/4\2p0----------------|
D|------0--0--x--0--0--0--x--0--x--0--x--0------------0----------------------|
G|------0--0--x--0--0--0--x--0--x--0--x--0------------2/4\2p0----------------|
D|------0--0--x--0--0--0--x--0--x--0--x--0------------0----------------------|


d|------0--x--0--0--x--0----0------------------------------------------------|
B|------0--x--0--0--x--0----0------------------------------------------------|
G|------0--x--0--0--x--5/7--7------------------------------------------------|
D|------0--x--0--0--x--0----0------------------------------------------------|
G|------0--x--0--0--x--5/7--7------------------------------------------------|
D|------0--x--0--0--x--0----0------------------------------------------------|


d|------0-----------------------------0--------------------------------------|
B|------5-----------------------------3--------------------------------------|
G|------0-----------------------------0--------------------------------------|
D|------0-----------------------------0--------------------------------------|
G|------4-----------------------------4--------------------------------------|
D|------5-----------------------------5--------------------------------------|


d|------0-----------------------------0--------------------------------------|
B|------1-----------------------------3--------------------------------------|
G|------0-----------------------------0--------------------------------------|
D|------0-----------------------------0--------------------------------------|
G|------0-----------------------------0--------------------------------------|
D|------4-----------------------------4--------------------------------------|


*CHORUS*

d|------0--------------------------------------------------------------------|
B|------3--------------------------------------------------------------------|
G|------0--------------------------------------------------------------------|
D|------4--------------------------------------------------------------------|
G|------2--------------------------------------------------------------------|
D|------0--------------------------------------------------------------------|

d|------0--------------------------------------------------------------------|
B|------1--------------------------------------------------------------------|
G|------0--------------------------------------------------------------------|
D|------2--------------------------------------------------------------------|
G|------0--------------------------------------------------------------------|
D|------0--------------------------------------------------------------------|

d|------0--------------------------------------------------------------------|
B|------3--------------------------------------------------------------------|
G|------0--------------------------------------------------------------------|
D|------4--------------------------------------------------------------------|
G|------2--------------------------------------------------------------------|
D|------0--------------------------------------------------------------------|

d|------0--------------------------------------------------------------------|
B|------1--------------------------------------------------------------------|
G|------0--------------------------------------------------------------------|
D|------2--------------------------------------------------------------------|
G|------0--------------------------------------------------------------------|
D|------0--------------------------------------------------------------------|

d|------0--------------------------------------------------------------------|
B|------3--------------------------------------------------------------------|
G|------0--------------------------------------------------------------------|
D|------4--------------------------------------------------------------------|
G|------2--------------------------------------------------------------------|
D|------0--------------------------------------------------------------------|

d|------0--------------------------------------------------------------------|
B|------1--------------------------------------------------------------------|
G|------0--------------------------------------------------------------------|
D|------2--------------------------------------------------------------------|
G|------0--------------------------------------------------------------------|
D|------0--------------------------------------------------------------------|

d|------0--------------------------------------------------------------------|
B|------3--------------------------------------------------------------------|
G|------0--------------------------------------------------------------------|
D|------4--------------------------------------------------------------------|
G|------2--------------------------------------------------------------------|
D|------0--------------------------------------------------------------------|

d|------0-------------0--------------0---------------------------------------|
B|------1-------------3--------------0---------------------------------------|
G|------0-------------0--------------0---------------------------------------|
D|------2-------------4--------------0---------------------------------------|  x3
G|------0-------------2--------------0---------------------------------------|
D|------0-------------0--------------0---------------------------------------|

d|------+12------------------------------------------------------------------|
B|------+12------------------------------------------------------------------|
G|------+12------------------------------------------------------------------|
D|------+12------------------------------------------------------------------|
G|------+12------------------------------------------------------------------|
D|------+12------------------------------------------------------------------|






************************************

| /   slide up
| \   slide down
| p   pull-off
| +   harmonic
| x   Mute note

************************************
Добавлено: 02.12.2015
Вам также может быть интересно:
Другие материалы по этой песне:
  • Аккорды и текст

Страница создана 02.12.2015
http://primanota.ru/daniel-dobbs/dive-chords.htm
Привет, Гость.
Предлагаем пройти революционный курс по гитаре.
Подарок от PrimaNota.Ru, забирай!